Your One-Stop Source For
Music Lyrics
Bass and Guitar Tabs
and More...
Music Lyrics Bass and Guitar Tabs

 

The Tabs Are Below

Learn To Read Tab
Chords Handbook
Corrections & Additions
Get Official Tab
Smashing Pumpkins tabs @ 911Tabs

Song: Emotional Rescue- Sunday Bloody Sunday

Release: performed live

Artist: The Smashing Pumpkins

Author: Jonathan Frank

Tuning: Eb

Notes: U2 cover. Transcribed as played by SP

 

-*-*-*-*-*-*-*-*-*-*-*-*-*-*-*-*-*-*-*-*-*-*-*-*-*-*-*-*-*-*-*-*-*-*-*-

 

Key:

 

/= slide up

\= slide down

 

 

------------------------------

------------------------------

------------------------------

------------2-----------------

---5/7-5\3--3----5/7-5\3------

------------------------------

 

--------------------------|

------------------------.-|

--------------------------|

--2-2-2--2-2-2------------|

--3-3-3--3-3-3--5/7-5\3-.-|

--------------------------|

 

---------

---------

--2---0--

--2---0--

--0---2--

------3--

 

--------------------------|

------------------------.-|

--------------------------|

--2-2-2--2-2-2------------|

--3-3-3--3-3-3--5/7-5\3-.-|

--------------------------|

 

------0-------0-------0-------0-----|

----3---3---3---3---3---3---3---3-.-|

--4-------2-------0-------0---------|

------------------------------------|

----------------------------------.-|

------------------------------------|

 

--------------------------|

------------------------.-|

--------------------------|

--2-2-2--2-2-2------------|

--3-3-3--3-3-3--5/7-5\3-.-|

--------------------------|

 

Return to my to my Smashing Pumpkins tabs page

The Tablature is Copyright its respective owners.

Sign Up For My Newsletter
Subscribe | Unsubscribe

Site Map | Disclaimer | Privacy Policy | Media Kit | Submissions/Corrections

Website © 2000-2014 mattsmusicpage.com. All rights reserved.

Legal & DMCA: Matt's Music Page has been providing lyrics and tabs in a legal way, paying royalties each year to a few organizations. Then, all lyrics and tabs were removed from the site. Now, there's a new owner to the site, which purchased it August 26, 2014, and he is in negotiation to obtain licensing from BMI at the moment. If you have a specific DMCA request -- please do not hesitate to contact me via the contact button on top. I will do my very best to keep this site fully legal.

Get our toolbar!