Your One-Stop Source For
Music Lyrics
Bass and Guitar Tabs
and More...
Music Lyrics Bass and Guitar Tabs

 

The Tabs Are Below

Learn To Read Tab
Chords Handbook
Corrections & Additions
Get Official Tab
Smashing Pumpkins tabs @ 911Tabs

Song: Daphne Descends

Release: as played at the Viper Room 1-15-98 bootleg, Song #5

Artist: The Smashing Pumpkins

Author: jonathan <youandme@flash.net>

Tuning: Eb

 

-*-*-*-*-*-*-*-*-*-*-*-*-*-*-*-*-*-*-*-*-*-*-*-*-*-*-*-*-*-*-*-*-*-*-*-

 

 

Intro & Verse:Slow and mellow finger picking

 

e----------------------------------------------------------------------

B----0---0---0---0---0---0---0---0---0---0---0---0---0---0---0---0-----

G----------------------------------------------------------------------

D----------------------------------------------------------------------

A----------------------------------------------------------------------

E-4---4---4---4---4---4---0---0---4---4---4---4---4---4---0---0--------

 

e---------------0----------------------------------------------------

B-------0---------------0-----------0---0---0---0---0---0-----0------

G---2-------2-------2-------2---2-----------------------------0------

D------------------------------------------------------------0-------

A---------------------------------------------------------0----------

E-2---2---2---2---2---2---2---2---4---4---4---4---4---4--------------

 

 

Chorus: you love him,you love him for yourself etc......

 

e-0--0-0-0--4-4-4--4-4---2-2-2-0--------------------------------------

B-0--0-0-0--4-4-4--4-4---2-2-2-2--------------------------------------

G-1--1-1-1--4-4-4--4-4---2-2-2-2--------------------------------------

D-2--2-2-2--6-6-6--6-6---4-4-4-4--------------------------------------

A-2--2-2-2--6-6-6--6-6---4-4-4-4--------------------------------------

E-0--0-0-0--4-4-4--4-4---2-2-2-2--------------------------------------

 

Billy plays the chorus part for the last verse except he doesnt go back

to the second fret until he plays the outro chorus: Remember this is the

5th song on the Viper Room show 1-15-98 refered to as (You love him).

 

Listen to the song to the get the correct rythym for the chorus part,

the verse part has the correct timing though:

e-mail me at <youandme@flash.net> if you have any questions,

comments,or requests for any songs

 

jonathan-

 

 

Return to my to my Smashing Pumpkins tabs page

The Tablature is Copyright its respective owners.

Sign Up For My Newsletter
Subscribe | Unsubscribe

Site Map | Disclaimer | Privacy Policy | Media Kit | Submissions/Corrections

Website © 2000-2014 mattsmusicpage.com. All rights reserved.

Legal & DMCA: Matt's Music Page has been providing lyrics and tabs in a legal way, paying royalties each year to a few organizations. Then, all lyrics and tabs were removed from the site. Now, there's a new owner to the site, which purchased it August 26, 2014, and he is in negotiation to obtain licensing from BMI at the moment. If you have a specific DMCA request -- please do not hesitate to contact me via the contact button on top. I will do my very best to keep this site fully legal.

Get our toolbar!