Your One-Stop Source For
Music Lyrics
Bass and Guitar Tabs
and More...
Music Lyrics Bass and Guitar Tabs

 

The Tabs Are Below

Learn To Read Tab
Chords Handbook
Corrections & Additions
Get Official Tab
Smashing Pumpkins tabs @ 911Tabs

Dancing In The Moonlight

Smashing Pumpkins

 

 

SOLO

b(5)4r - Bend 4th Fret Until The Sound of 5th Fret, then Release

h - Hammer On

p - Pull Off

/ - Slide

 

E-|------------------------------------------------------------------|

B-|------------------------------------b(11)10r--7-7h8p7-5--5/7------|

G-|----------------------0--2/4--7-7/9-------------------------------|

D-|-2---b(5)4r---0--2/4----------------------------------------------|

A-|------------------------------------------------------------------|

E-|------------------------------------------------------------------|

 

 

E-|-5--5/7--10-12---14-12-15-14-7--8-7/5--3-2--3-2-3-2--0-2--5/7--5--|

B-|------------------------------------------------------------------|

G-|------------------------------------------------------------------|

D-|------------------------------------------------------------------|

A-|------------------------------------------------------------------|

E-|------------------------------------------------------------------|

 

 

E-|-3p2--0-2-3--8p7p5--3-5-3-b(6)5r--2-3-2-0-2--3/5--5-8-10/12--14---|

B-|------------------------------------------------------------------|

G-|------------------------------------------------------------------|

D-|------------------------------------------------------------------|

A-|------------------------------------------------------------------|

E-|------------------------------------------------------------------|

 

 

E-|-b(15)14-x6-------------------------------------------------------|

B-|------------------------------------------------------------------|

G-|------------------------------------------------------------------|

D-|------------------------------------------------------------------|

A-|------------------------------------------------------------------|

E-|------------------------------------------------------------------|

 

Return to my to my Smashing Pumpkins tabs page

The Tablature is Copyright its respective owners.

Sign Up For My Newsletter
Subscribe | Unsubscribe

Site Map | Disclaimer | Privacy Policy | Media Kit | Submissions/Corrections

Website © 2000-2014 mattsmusicpage.com. All rights reserved.

Legal & DMCA: Matt's Music Page has been providing lyrics and tabs in a legal way, paying royalties each year to a few organizations. Then, all lyrics and tabs were removed from the site. Now, there's a new owner to the site, which purchased it August 26, 2014, and he is in negotiation to obtain licensing from BMI at the moment. If you have a specific DMCA request -- please do not hesitate to contact me via the contact button on top. I will do my very best to keep this site fully legal.

Get our toolbar!