Your One-Stop Source For
Music Lyrics
Bass and Guitar Tabs
and More...
Music Lyrics Bass and Guitar Tabs

 

The Tabs Are Below

Learn To Read Tab
Chords Handbook
Corrections & Additions
Get Official Tab
Smashing Pumpkins tabs @ 911Tabs

Song: Czarina

Release: Ava Adore single

Artist: The Smashing Pumpkins

Authors: Craig Newnes <cnewnes@jetstream.net>

Tuning: Eb

 

-*-*-*-*-*-*-*-*-*-*-*-*-*-*-*-*-*-*-*-*-*-*-*-*-*-*-*-*-*-*-*-*-*-*-*-

 

Chord Fingerings:

Dsus2 G6/D Em G/F# G Asus2 Bm

E| 0 0 0 x 3 0 2

B| 7 8 0 x 3 0 3

G| 7 7 0 0 0 2 4

D| 0 0 2 0 0 2 4

A| x x 2 2 2 0 2

E| x x 0 2 3 x x

 

 

Fig1

Dsus2 G6/D

|---0-----0----------0---------0-----0--|

|-----7-----7---7------7-----8----------|

|-------------7-------------------------|

|-0-----0----------0------0-------0-----|

|---------------------------------------|

|---------------------------------------|

 

Fig2

Dsus2 G6/D

|----0-------0------0------0------0------0--|

|------7-------7---------8------8------8----|

|----------------7--------------------------|

|-0-------0-------------------0------0------|

|-------------------------------------------|

|-------------------------------------------|

 

Fig3

Em G/F# G Asus2

|--------------------|

|--------------------|

|---0---------0------|

|-----2---------0----|

|-----------------0--|

|-0------2--3--------|

 

Fig4

Em G/F# G Asus2 Dsus2 Em G/F# G G/F# Em G/F# G Asus2

|------------------------------------------------------------------------------------|

|----------------------0-------3-----------------------3-----------------------------|

|---0--------0-------2-------2----------0---------0------0----------0---------0------|

|-----2--------0-----------0--------------0-----0---0------0----------2---------0----|

|-----------------0---------------------------------------------------------------0--|

|-0------2-3-----------------------0--2-------3---------------2---0------2--3--------|

 

Fig5

D Em Asus2

|--------------------------------------------0--|

|----3-------3------3-----0------0--------0--0--|

|------2-------2------------0------0---------2--|

|-4-------2-------0-----2------0-------------2--|

|--------------------------------------2-----0--|

|-----------------------------------------------|

 

Fig6

|-----------------0--|

|---------------3----|

|--------------------|

|-4-2-0-2-0----------|

|-----------2-0------|

|--------------------|

 

Fig1>2x

 

Fig1

Sipping tea

Fig1

let the rivers pass me by

Fig1

these dark stitchins

Fig1

need no place to cry

 

Fig1 Fig1

I need no reason for the first time in my life

Fig4 Fig1

I just need to be on my way

 

Fig2 Fig2

I don't want for anything that I don't have

Fig2 Fig2

all I want is waiting for me there for me there

Fig4

with my czarina queen of all that I bleed

Fig1>2x

still born seasons cradle her up there

 

Fig1

I light a candle

Fig1

my lover to protect

Fig1

in ? and ashes

Fig1

my lover will be sent

 

Fig2 Fig2

I need no reason for the first time in my life

Fig3 Fig1

I just need to be on my way

 

Fig2 Fig2

I don't want for anything that I don't have

Fig2 Fig2

all I want is waiting for me there

Fig2 Fig2

I don't want for anything that I don't have

Fig2 Fig2

all I want is waiting for me there

for me there

 

Fig5 (with Fig6)

hid behind your world

Fig4

I waste the day

If I want

Bm

I'll just get more under me

 

Fig2 Fig2

I need no reason for the first time in my life

Fig2 Fig2

I just need to be on my way

 

Fig2 Fig2

I don't want for anything that I don't have

Fig2 Fig2

all I want is waiting for me there

Fig2 Fig2

I don't want for anything that I don't have

Fig2 Fig2

all I want is waiting for me there

Fig6

for me there

Fig6

for me there

 

Fig6>3x

 

Return to my to my Smashing Pumpkins tabs page

The Tablature is Copyright its respective owners.

Sign Up For My Newsletter
Subscribe | Unsubscribe

Site Map | Disclaimer | Privacy Policy | Media Kit | Submissions/Corrections

Website © 2000-2014 mattsmusicpage.com. All rights reserved.

Legal & DMCA: Matt's Music Page has been providing lyrics and tabs in a legal way, paying royalties each year to a few organizations. Then, all lyrics and tabs were removed from the site. Now, there's a new owner to the site, which purchased it August 26, 2014, and he is in negotiation to obtain licensing from BMI at the moment. If you have a specific DMCA request -- please do not hesitate to contact me via the contact button on top. I will do my very best to keep this site fully legal.

Get our toolbar!

 

VINTAGE SORRENTO MUSIC JEWELRY BOX
$45.0
VINTAGE SORRENTO MUSIC JEWELRY BOX picture


VINTAGE LACQUERED MUSIC BOX JAPAN
$25.99
VINTAGE LACQUERED MUSIC BOX JAPAN picture


Vintage Kehlsteinhaus Bavaria Germany Colorscope Cow Bell View Master Music Box
$8.99
Vintage Kehlsteinhaus Bavaria Germany Colorscope Cow Bell View Master Music Box picture


VINTAGE SCHMIDT Signed Collectible Musical Turning Clown
$9.99
VINTAGE  SCHMIDT Signed Collectible Musical Turning Clown picture


Vintage - Linen - Postcard - Stage - Radio City Music Hall - New York City
$3.75
Vintage - Linen - Postcard - Stage - Radio City Music Hall - New York City   picture