Your One-Stop Source For
Music Lyrics
Bass and Guitar Tabs
and More...
>Music Lyrics Bass and Guitar Tabs

 

The Tabs Are Below

Learn To Read Tab
Chords Handbook
Corrections & Additions
Get Official Tab
Smashing Pumpkins tabs @ 911Tabs

This is the tablature for "Cherub Rock" by Smashing Pumpkins. Yes, I

am aware that someone else tabbed it out, but I think my way is more

correct. Most of the song is octave's.

Intro

 

E---------------------------------------------------------------

B---------------------------------------------------------------

G--99-99--999--999----------------------------------------------

D---------------------------------99 99 999 999----66 66 666 666

A--77-77--777--777----------------77 77 777 777----77 77 777 777

E-0--0--0----0-----(w/distortion)0----------------0-------------

Play each of these a few times before moving to the next one.

Verses this repeats for a while

 

E-------------------------------

B-------------------------------

G--11/9-13/14-13-13-13-11/9-11/9

D-------------------------------

A--9/7-11/12-11-11-11--9/7---9/7

E------------------------------- then every once in a while D5 A5

 

Chorus

D5 A5 C5 G5

 

When he says "let--let me out" play this

(Open)E5 D5 A5 B5 C5 G5

 

Solo. consider yourselves lucky, I am going to tab it out for you.

 

E-------------17-19(b1)19-17191919161716----14(harm bend)-------------------------------------------------------------

B-15(b1)-17h19--------------------------1719-------------14~~--10p7---------------------------------------------------

G-------------------------------------------------------------------9p7~~-9p7----------------------9-11(b1)11(b1)9----

D-----------------------------------------------------------------------------9----------------9-11-------------------

A---------------------------------------------------------------------------------11-9-----9h11-----------------------

E-------------------------------------------------------------------------------------12-9----------------------------

Key

/= slide

B1= Bend 1 step

Harm Bend= Harmonic bend or pinch harmonic

p=pull off

h=Hammer-on

 

Well, anyways, that's it, if you have any requests, suggestions,

or whatever,mail me at Trublmakr5@Aol.com

 

Return to my to my Smashing Pumpkins tabs page

The Tablature is Copyright its respective owners.

Sign Up For My Newsletter
Subscribe | Unsubscribe

Site Map | Disclaimer | Privacy Policy | Media Kit | Submissions/Corrections

Website © 2000-2014 mattsmusicpage.com. All rights reserved.

Legal & DMCA: Matt's Music Page has been providing lyrics and tabs in a legal way, paying royalties each year to a few organizations. Then, all lyrics and tabs were removed from the site. Now, there's a new owner to the site, which purchased it August 26, 2014, and he is in negotiation to obtain licensing from BMI at the moment. If you have a specific DMCA request -- please do not hesitate to contact me via the contact button on top. I will do my very best to keep this site fully legal.

Get our toolbar!

 

V. Horowitz .. Rare Red Vinyl 45 rpm BOX SET OF LISZT .. RCA WDM 1534 NM/NM-
$6.0
 V. Horowitz .. Rare Red Vinyl 45 rpm BOX SET OF LISZT .. RCA WDM 1534 NM/NM- picture


Vintage BUDWEISER BEER Wooden Crate Storage for 12" Vinyl Records Advertising
$49.99
Vintage BUDWEISER BEER Wooden Crate Storage for 12


WALT DISNEY WORLD EPCOT CENTER VOICES OF LIBERTY record album LP vinyl
$9.0
WALT DISNEY WORLD EPCOT CENTER  VOICES OF LIBERTY record album LP vinyl picture


ORIGINAL 1964-vintage (W.S.Myers Assoc) "ILIKAI Hotel" Vinyl-Record~EP ~w/SLEEVE
$3.0
ORIGINAL 1964-vintage (W.S.Myers Assoc)


The Jets-Crush On You - 12" MCA Records Vinyl
$5.0
The Jets-Crush On You - 12