Your One-Stop Source For
Music Lyrics
Bass and Guitar Tabs
and More...
Music Lyrics Bass and Guitar Tabs

 

The Tabs Are Below

Learn To Read Tab
Chords Handbook
Corrections & Additions
Get Official Tab
Smashing Pumpkins tabs @ 911Tabs

Cherry

Smashing Pumpkins

 

 

 

*1 - Verse

 

Eb-|-----------------------------------------------------------------|

Bb-|-----------------------------------------------------------------|

Gb-|-----------------------------------------------------------------|

Db-|---4---4-4----2--0-0---------------------------------------------|

Ab-|-2---2-----0-----------------------------------------------------|

Eb-|-----------------------------------------------------------------|

 

 

*2 - Chorus

 

Eb-|-----------------------------------------------------------------|

Bb-|-----------------------------------------------------------------|

Gb-|-----------------------------------------------------------------|

Db-|-7--7--7-7---5-5---0--0-0----------------------------------------|

Ab-|-----------------------------------------------------------------|

Eb-|-----------------------------------------------------------------|

 

*3 - Chorus 2

 

Eb-|-------------------------------------------------------------|

Bb-|-------------------------------------------------------------|

Gb-|-------------------------------------------------------------|

Db-|-7--7--7-7---5-5---0--0-0---7--7--7-7--5---------------------|

Ab-|-------------------------------------------------------------|

Eb-|-------------------------------------------------------------|

 

 

Structure - *1 x16,*2 x3,*3,*1 x16,*2 x3, *3,*1 x7

 

Return to my to my Smashing Pumpkins tabs page

The Tablature is Copyright its respective owners.

Sign Up For My Newsletter
Subscribe | Unsubscribe

Site Map | Disclaimer | Privacy Policy | Media Kit | Submissions/Corrections

Website © 2000-2014 mattsmusicpage.com. All rights reserved.

Legal & DMCA: Matt's Music Page has been providing lyrics and tabs in a legal way, paying royalties each year to a few organizations. Then, all lyrics and tabs were removed from the site. Now, there's a new owner to the site, which purchased it August 26, 2014, and he is in negotiation to obtain licensing from BMI at the moment. If you have a specific DMCA request -- please do not hesitate to contact me via the contact button on top. I will do my very best to keep this site fully legal.

Get our toolbar!