Your One-Stop Source For
Music Lyrics
Bass and Guitar Tabs
and More...
Music Lyrics Bass and Guitar Tabs

 

The Tabs Are Below

Learn To Read Tab
Chords Handbook
Corrections & Additions
Get Official Tab
Smashing Pumpkins tabs @ 911Tabs

Bodies

Smashing Pumpkins

 

 

dropped D tuning

Then take that Dropped D and tune it down a half step to a C#.

 

Major distortion

"Love is suicide...."

---------------------------------------------------------------------

---------------------------------------------------------------------

---------------------------------------------------------------------

--3333333333/777777777777\22222222222/333333333----------------------

--3333333333/777777777777\22222222222/333333333----------------------

--3333333333/777777777777\22222222222/333333333----------------------

 

change #1 "...casualties of their own past...."

 

---------------------------------------------------------------------

---------------------------------------------------------------------

---------------------------------------------------------------------

--2222222222/777777777777\55555555555\222222222----------------------

--2222222222/777777777777\55555555555\222222222----------------------

--2222222222/777777777777\55555555555\222222222----------------------

 

change #2 "...nobody ..."

 

---------------------------------------------------------------------

---------------------------------------------------------------------

---------------------------------------------------------------------

--5555555555/777777777777\222222222/55555555555----------------------

--5555555555/777777777777\222222222/55555555555----------------------

--5555555555/777777777777\222222222/55555555555----------------------

 

--------------------------------------------------------------------------------

Bodies

Smashing Pumpkins

 

Tuning: (Db Ab Db Gb Bb Eb) dropped-D with whole guitar down a half step

 

intro note

-------

-------

-------

---7--- over and over for the entirety of the intro

-------

-------

 

E5 Ab5 Eb5

E5 Ab5 Eb5

E5 Ab5 Eb5

E5 Ab5 Eb5

 

E5 Ab5 Eb5 E5 Ab5 Eb5 E5

Cast the pearls aside, of a simple life of need

E5 Ab5 Eb5 E5 Ab5 Eb5

Come into my life forever

 

Eb5 Db5 Gb5 Eb5

The crumbled cities stand as known

Eb5 Db5 Gb5 Eb5

of the sights you have been shown

Eb5 Db5 Gb5 Eb5

of the hurt you call your own

Eb5 Db5 Gb5

 

 

 

chorus 1

--------

---10---

-------- with either a phaser or wah pedal, I can't tell..

---7---- play above following line

--------

--------

 

E5 Ab5 Eb5

Love is suicide (x4)

 

 

Gb5 E5 Ab5 Gb5

The empty bodies stand at rest

Gb5 E5 Ab5 Gb5

Casualties of their own flesh

Gb5 E5 Ab5 Gb5 E5 Ab5

Afflicted by their dispo-sse-ssion

 

 

chorus 2

B5 C#5 E5 B5

But no bodies ever knew

B5 C#5 E5 B5

No-body-s

B5 C#5 E5 B5

No bodies felt like you

B5 C#5 E5

No-body-s

 

 

quiet part

----------12----12---12---

-------10---10--10---10---

----10----------10---10--- play this REAL close to the bridge for that music

-------------------------- box kinda sound.. slight hint of chorus, too..

--------------------------

--------------------------

 

Love is suicide, love is suicide, love is suicide, love is.. love..

 

 

solo part

E5 Ab5 Eb5 E5

Now we drive the night

------------------------------------

------------------------------------

---2---7---9--7-----9---9b10r9~\----

------------------------------------

------------------------------------

------------------------------------

 

E5 Ab5 Eb5 E5

to the ironies of peace

------------------------------

------------------------------

---2---7--9--9b10r9--9-7-9----

------------------------------

------------------------------

------------------------------

 

E5 Ab5 Eb5 E5 Ab5 Eb5

You can't help deny forever

---------------------------------------

---------------------------------------

---2---7---9----9b10r9--7--5-7-9~~\----

---------------------------------------

---------------------------------------

---------------------------------------

 

 

Eb5 Db5 Gb5 Eb5

The tragedies reside in you

Eb5 Db5 Gb5 Eb5

The secret sights hide in you

Eb5 Db5 Gb5 Eb5

The lonely nights divide you in two

Eb5 Db5 Gb5

 

 

Gb5 E5 Ab5 Gb5

All my blisters now revealed

Gb5 E5 Ab5 Gb5

In the darkness of my dreams

Gb5 E5 Ab5 Gb5 E5 Ab5

In the spaces in between us

 

 

chorus 2 with just one guitar

 

then chorus 2 with two guitars, and one angry Billy Corgan.. :)

 

then chorus 1 again

 

end on Db5, then pull the plug outta your guitar and do strange things with it

 

chords:

Db5 000xxx

Eb5 222xxx

E5 333xxx

Gb5 555xxx

Ab5 x0222x

B5 x3555x

C#5 x5777x

 

Return to my to my Smashing Pumpkins tabs page

The Tablature is Copyright its respective owners.

Sign Up For My Newsletter
Subscribe | Unsubscribe

Site Map | Disclaimer | Privacy Policy | Media Kit | Submissions/Corrections

Website © 2000-2014 mattsmusicpage.com. All rights reserved.

Legal & DMCA: Matt's Music Page has been providing lyrics and tabs in a legal way, paying royalties each year to a few organizations. Then, all lyrics and tabs were removed from the site. Now, there's a new owner to the site, which purchased it August 26, 2014, and he is in negotiation to obtain licensing from BMI at the moment. If you have a specific DMCA request -- please do not hesitate to contact me via the contact button on top. I will do my very best to keep this site fully legal.

Get our toolbar!

 

BRAND NEW KEY OF C HOHNER MINI HARMONICA HARP KEYRING KEYCHAIN KEY RING CHAIN
$8.21
BRAND NEW KEY OF C HOHNER MINI HARMONICA HARP KEYRING KEYCHAIN KEY RING CHAIN picture


RISING SONS BAND *2X3 FRIDGE MAGNET* VOCALS GUITAR MANDOLIN DOBRO HARMONICA SONG
$3.99
RISING SONS BAND *2X3 FRIDGE MAGNET* VOCALS GUITAR MANDOLIN DOBRO HARMONICA SONG picture


Vtg Christmas Angel Baby Girl W Harmonica Boy W Book SET OF 2 W GOLD WINGS
$125.0
Vtg Christmas Angel Baby Girl W Harmonica Boy W Book SET OF 2 W GOLD WINGS  picture


Beautiful Hand Carved Jewelry Trinket Jewelry Box Harmonica Case Bone And Brass
$14.5
Beautiful Hand Carved Jewelry Trinket Jewelry Box Harmonica Case Bone And Brass picture


BRAND NEW* HOHNER BOB DYLAN SIGNATURE LIMITED EDITION HARMONICA COLLECTORS ITEM
$140.19
BRAND NEW* HOHNER BOB DYLAN SIGNATURE LIMITED EDITION HARMONICA COLLECTORS ITEM picture