Your One-Stop Source For
Music Lyrics
Bass and Guitar Tabs
and More...
Music Lyrics Bass and Guitar Tabs

 

The Tabs Are Below

Learn To Read Tab
Chords Handbook
Corrections & Additions
Get Official Tab
Smashing Pumpkins tabs @ 911Tabs

 

This is a real pain in the ass having to e-mail this, but I guess I'm just a

tortured artist. I hope this makes it...

 

Song: Luna

Artist: Smashing Pumpkins

 

(let ring!) x3

A|*--5--7--5--7--5--7--0--*|--0-0-0-0--|------------|------------|--5--5-5-5--|

E|*-----------------------*|-----------|--3--3-3-3--|--2--2-2-2--|------------|

 

 

A|--0--0-0-0--|------------|-------------------|--2--2-2-2--|------------|

E|------------|--3--3-3-3--|--2-2-2-2-2-2-2-2--|------------|--3--3-3-3--|

 

 

A|--0-0-0-0-0-0-0-0--|--2--2-2-2--|------------|----0----|--rest--|

E|-------------------|------------|--3--3-3-3--|---------|--------|

 

x3 x3

A|*--5--5-5--7-7-7-7-7--*|--0-0-0-0-0-0-0-0--|*--5--5-5--7-7-7-7-7--*|

E|*---------------------*|-------------------|*---------------------*|

--

 

A|--0--0-0-0--|------------|------------|--5--5-5-5--|--0--0-0-0--|-----------|

E|------------|--3--3-3-3--|--2--2-2-2--|------------|------------|--3--3-3-3-|

 

 

A|------------|--2--2-2-2--|------------|--0--0-0-0--0--0-0-0--|--2--2-2-2--|

E|--2--2-2-2--|------------|--3--3-3-3--|----------------------|------------|

 

play 3 times

A|------------|----5----|--0-0---0-0---0-0---0-0--|*--5--5-5--7-7-7-7-7--|

E|--3--3-3-3--|---------|-------------------------|*---------------------|

 

1st, 2nd time 3rd time (fade out)

A|---o/o---|---o/o---|--0--0-0-0-0--*|--0--0-0-0--0--0-0-0--0--0-0-0--|

E|---------|---------|--------------*|--------------------------------|

 

The "o/o" things are supposed to be repeat signs--play that first measure 3

times in a row. I'm sure you know that anyway.

 

One more quick one....

 

Song: Sweet Sweet

Artist: Smashing Pumpkins

 

 

A|*---------------------------------------------|---3--3-3-3---3--3-3-3---|

E|*--3--3-3-3---3--3-3-3---3--3-3-3---3--3-3-3--|-------------------------|

 

A|-------------------------*| just keep repeating this. The song ends on

E|---0--0-0-0---0--0-0-0---*| an open "E"

 

 

Just for the record, my name is David Virginia, e-mail address is

dvirgini@wnec.edu

 

Thanks, and hope to see these posted soon.....

 

 

Return to my to my Smashing Pumpkins bass tabs page

The Tablature is Copyright its respective owners.

Sign Up For My Newsletter
Subscribe | Unsubscribe

Site Map | Disclaimer | Privacy Policy | Media Kit | Submissions/Corrections

Website © 2000-2014 mattsmusicpage.com. All rights reserved.

Legal & DMCA: Matt's Music Page has been providing lyrics and tabs in a legal way, paying royalties each year to a few organizations. Then, all lyrics and tabs were removed from the site. Now, there's a new owner to the site, which purchased it August 26, 2014, and he is in negotiation to obtain licensing from BMI at the moment. If you have a specific DMCA request -- please do not hesitate to contact me via the contact button on top. I will do my very best to keep this site fully legal.

Get our toolbar!