Your One-Stop Source For
Music Lyrics
Bass and Guitar Tabs
and More...
Music Lyrics Bass and Guitar Tabs

 

The Tabs Are Below

Learn To Read Tab
Chords Handbook
Corrections & Additions
Get Official Tab
Smashing Pumpkins tabs @ 911Tabs

Blue

Smashing Pumpkins

 

 

|-----3-------1-------3------- -----2-------0--------------------------------

|-----3-------1-------5------- -----3-------1--------------------------------

|-----4-------2-------5------- -----4-------0--------------------------------

|-----5-------3-------5------- -----4-------2--------------------------------

|-----5-------3-------3------- -----2-------3--------------------------------

|-----3-------1--------------- ----------------------------------------------

<------Verse---------> <---"Chorus" ------>

 

- The above is for rhythm guitar (James). Billy plays the following (I think):

 

|----------------------------- ----------------------------------------------

|----------------------------- ----------------------------------------------

|----------------------------- ----------------------------------------------

|-----5b6b5---\3/10----------- ----------------------------(16)b14-----------

|----------------------------- ----5----7----9/10---12-----------------------

|-----3b4b3---\1/8------------ ----------------------------------------------

<-----Verse----------> <--------"Chorus"---------------->

 

- At the end of the 2nd chorus the chord is some wierd Am which looks like

this:

|---0----

|---1---- (Am/D?)

|---0----

|---2----

|---0----

|--------

 

- Here's the slow part...

 

|---3-------------0------------- ---------------------------------------

|---0-(or 3)------1------------- ------------------------13--12--(pinky)

|---4-------------2------------- ---------------------------------------

|---5-------------3------------- ---12----12-----10--10--10--10---------

|---5-------------3------------- ------14--------12--12--12--12---------

|---3-------------1-----(thumb)- ---------------------------------------

<-----James-------> <---------Billy------------>

 

 

Hey, Blue, all your love is strange

Come out, with all those crazy names

So true, when you laugh

 

For you, Blue

 

Right or wrong?

I belong...right or wrong.

 

Hey, Blue, where'd you run to now? (Hey Blue)

Miss you since they found you out

I've been waiting for such a long hour

For your smile...

 

For you, Blue

 

I lay with you this velvet moment

Stay with me for a while

Where we run is up to you

Just stay with me for a while.

 

Return to my to my Smashing Pumpkins tabs page

The Tablature is Copyright its respective owners.

Sign Up For My Newsletter
Subscribe | Unsubscribe

Site Map | Disclaimer | Privacy Policy | Media Kit | Submissions/Corrections

Website © 2000-2014 mattsmusicpage.com. All rights reserved.

Legal & DMCA: Matt's Music Page has been providing lyrics and tabs in a legal way, paying royalties each year to a few organizations. Then, all lyrics and tabs were removed from the site. Now, there's a new owner to the site, which purchased it August 26, 2014, and he is in negotiation to obtain licensing from BMI at the moment. If you have a specific DMCA request -- please do not hesitate to contact me via the contact button on top. I will do my very best to keep this site fully legal.

Get our toolbar!

 

Hard Rock Pin Las Vegas 4th of july red white and blue guitar
$5.0
Hard Rock Pin Las Vegas 4th of july red white and blue guitar picture


Hard Rock Pin Hollywood Fl Bell Girl with dice luggage and guitar
$5.0
Hard Rock Pin Hollywood Fl Bell Girl with dice luggage and guitar picture


Hard Rock Pin Las Vegas King of Clubs Guitar rare only 3 lines of info on back
$5.0
Hard Rock Pin Las Vegas King of Clubs Guitar rare only 3 lines of info on back picture


Hard Rock Pin Edmonton guitar pin
$5.0
Hard Rock Pin Edmonton guitar pin picture


Lladro Guitar Boy #4614 - Beautiful Piece of Lladro
$109.0
Lladro Guitar Boy #4614 - Beautiful Piece of Lladro picture