Your One-Stop Source For
Music Lyrics
Bass and Guitar Tabs
and More...
Music Lyrics Bass and Guitar Tabs

 

The Tabs Are Below

Learn To Read Tab
Chords Handbook
Corrections & Additions
Get Official Tab
Smashing Pumpkins tabs @ 911Tabs

Song: Ava Adore

Release: (as played live)

Artist: The Smashing Pumpkins

Authors: 1. Nick Kuyakanon (nickuya@imsa.edu)

2. Edmund Lim <edzen@hotmail.com>

Tuning: Eb

 

-*-*-*-*-*-*-*-*-*-*-*-*-*-*-*-*-*-*-*-*-*-*-*-*-*-*-*-*-*-*-*-*-*-*-*-

 

Intro and Verse:

Eb -----------------

Bb -------------222-

Gb -------------222-

Db 4-4-xxxx4-4-x222-

Ab 4-4-xxxx4-4-x000-

Eb 2-2-xxxx2-2-x----

 

It's you that I adore

you'll always be my whore

you'll be the mother to my child

and a child to my heart

 

Eb ---------------- -----------------

Bb ---------3--3--- -------------222-

Gb -1--1----4--4--- -------------222-

Db -2--2----4--4--- 4-4-xxxx4-4-x222-

Ab -2--2----2--2--- 4-4-xxxx4-4-x000-

Eb -0--0----------- 2-2-xxxx2-2-x----

 

We must never be apart

We must never be apart

 

A Dbm

Lovely girl you're the beauty in my world

D Bm A

Without you there are no reasons left to find

 

Riff 1:

Eb -----------

Bb -----------

Gb -----------

Db -7-7-6-5-4-

Ab -7-7-6-5-4-

Eb -5-5-4-3-2-

 

This leads back into the verse.

 

Verse 2:

 

Pull your crooked teeth

You'll be perfect just like me

You'll be a lover in my bed

and a gun to my head

 

We must never be apart

We must never be apart

 

Chorus 2:

A Dbm

Lovely girl you're the murder in my world

D Bm A

Dressing coffins for the souls i've left behind

A Dbm D Bm A

Drinking mercury to the mystery of all that you should ever seek to find

Bm

in time

 

[Riff 1]

 

Play the verse chords while he sings:

 

In you i see dirty

in you i count stars

in you i feel so pretty

in you i taste god

in you i feel so hungry

in you i crash cars

 

E Bm

We must never be apart

 

This interlude sounds right to me, you can figure out the strumming:

 

Eb -----------------------------------------

Bb -0------0--------------------------------

Gb -6------6-----7-----7--------------------

Db -7------6-----0-----9-----2-/-4-/-6-/-7--

Ab -0------7-----0-----9-----0---0---0---0--

Eb -----------------------------------------

 

 

A Dbm

Drinking mercury to the mystery

D Bm A

of all that you should ever seek to find

A Dbm

Lovely girl you're the murder in my world

D Bm A

Dressing coffins for the souls i've left behind

Bm

in time

A Bm

We must never be apart

 

Then play the verse riff for:

 

F# A

And you'll always be my whore

F# A

'cause you're the one that i adore

 

E Bm

 

F# A

I'll pull your crooked teeth

F# A

You'll be perfect just like me

 

E Bm

 

F# A

In you a feel so dirty

E Bm

In you i crash cars

 

F# A

 

E Bm

In you i feel so pretty

F# A

In you i taste god

 

E Bm F# A

Ah ah ah....

 

E Bm

We must never be apart

 

end: verse riff 7x

 

comments, corrections: nickuya@imsa.edu

 

 

***************************************************************

 

(2) Live Ava Adore Tab

 

-=--=--=--=--=--=--=--=--=--=--=--=--=--=--=--=--=--=--=--=--=

 

Tabbed by Edmund Lim - Revised Version

-The song was tabbed from watching the pumpkins'

-live concert video clip in Germany on 29th May 98.

-All comments welcomed at --> edzen@hotmail.com

 

-=--=--=--=--=--=--=--=--=--=--=--=--=--=--=--=--=--=--=--=--=-

 

|INTRO|

eb|-----------------------------|

Bb|-----------------------------|

Gb|-----------------------------|

Db|-4-4-x-x-x---4-4-4----4/7----|

Ab|-4-4-x-x-x---4-4-4----4/7----|

Eb|-2-2-x-x-x---0-2-2----2/5----|

| |

| |

| BASS PART |

Gb|-----------------------------|

Db|-----------------------------|

Ab|-----------------------------|

Eb|-2-2---------0h2-2----2/5----|

 

 

The rest of the parts are basically:

 

 

|Prechorus: Strum E-Bm-F#5|

[Bass Part]

Gb|--------------------------------------------------------------|

Db|--------------------------------------------------------------|

Ab|------2-2-2-2-------------------------------------------------|

Eb|-0-0----------2(When moving to chorus play Open Ab string instead)

 

 

 

 

|Chorus: Strum A5-C#m-D5-B5-A5|

[Bass Part]

Gb|-------------------------------------------|

Db|-------------------------------------------|

Ab|-0-0-0-0--4-4-4-4--5-5-5-5--2-2--0-0-0-0-0-|

Eb|-------------------------------------------|

 

 

Pick scrape by James then....bridge

 

|Bridge|:

in you I see dirty

in you I count stars

in you I feel so pretty....blah..blah

eb|-------------------------------|

Bb|-------------------------------|

Gb|-------------------------------|

Db|-4-4-x-x-x---4-4-4-----4/7-----|

Ab|-4-4-x-x-x---4-4-4-----4/7-----|

Eb|-2-2-x-x-x---0-2-2-----2/5-----| Guitar comes in only when Billy

| | sings .. "in you i feel so

| | hungry..." else its basically the bass

| |

| |

| |

| BASS PART |

Gb|-------------------------------|

Db|-------------------------------|

Ab|-------------------------------|

Eb|-2-2---------0h2-2---(2/5)-----| Only play notes in brackets when

Billy sings "in you i feel so hungry..."

 

|Outro|: Play this riff a couple of times

eb|-----------------------------|

Bb|-----------------------------|

Gb|-----------------------------|

Db|-4-4-4-x-x-x-x---------------|

Ab|-4-4-4-x-x-x-x---------------|

Eb|-0-2-2-x-x-x-x---------------|

| |

| |

| BASS PART |

Gb|-----------------------------|

Db|-----------------------------|

Ab|-----------------------------|

Eb|-0h2-2-2-2-2-----------------|

 

Then strum this final riff to end it off

eb|-----------------------------|

Bb|-----------------------------|

Gb|-----------------------------|

Db|-4-4-4-----------------------|

Ab|-4-4-4-----------------------|

Eb|-0-2-2-----------------------|

| |

| |

| BASS PART |

Gb|-----------------------------|

Db|-----------------------------|

Ab|-----------------------------|

Eb|-0h2-2-----------------------|

 

[SOLO] - Play Chorus-progression over solo

eb|---------------------------|

Bb|---------------------------|

Gb|---------------------------|

Db|---------------------------|

Ab|----------------7-7--9-9---|

Eb|-5-5--7-7--9-9-------------|

 

eb|---------------------------|

Bb|----------------5----------|

Gb|-----------6-6-----7\5-6\4-|

Db|-7-7--9-9------------------|

Ab|---------------------------|

Eb|---------------------------|

 

eb|---------------------------|

Bb|-7--5h7p5\3---2------------|

Gb|-----------------4-2-4b~~~~|

Db|---------------------------|

Ab|---------------------------|

Eb|---------------------------|

 

That's that!

 

 

Return to my to my Smashing Pumpkins tabs page

The Tablature is Copyright its respective owners.

Sign Up For My Newsletter
Subscribe | Unsubscribe

Site Map | Disclaimer | Privacy Policy | Media Kit | Submissions/Corrections

Website © 2000-2014 mattsmusicpage.com. All rights reserved.

Legal & DMCA: Matt's Music Page has been providing lyrics and tabs in a legal way, paying royalties each year to a few organizations. Then, all lyrics and tabs were removed from the site. Now, there's a new owner to the site, which purchased it August 26, 2014, and he is in negotiation to obtain licensing from BMI at the moment. If you have a specific DMCA request -- please do not hesitate to contact me via the contact button on top. I will do my very best to keep this site fully legal.

Get our toolbar!

 

VINTAGE SORRENTO MUSIC JEWELRY BOX
$45.0
VINTAGE SORRENTO MUSIC JEWELRY BOX picture


VINTAGE LACQUERED MUSIC BOX JAPAN
$25.99
VINTAGE LACQUERED MUSIC BOX JAPAN picture


Vintage Kehlsteinhaus Bavaria Germany Colorscope Cow Bell View Master Music Box
$8.99
Vintage Kehlsteinhaus Bavaria Germany Colorscope Cow Bell View Master Music Box picture


VINTAGE SCHMIDT Signed Collectible Musical Turning Clown
$9.99
VINTAGE  SCHMIDT Signed Collectible Musical Turning Clown picture


Vintage - Linen - Postcard - Stage - Radio City Music Hall - New York City
$3.75
Vintage - Linen - Postcard - Stage - Radio City Music Hall - New York City   picture