Your One-Stop Source For
Music Lyrics
Bass and Guitar Tabs
and More...
Music Lyrics Bass and Guitar Tabs

 

The Tabs Are Below

Learn To Read Tab
Chords Handbook
Corrections & Additions
Get Official Tab
Smashing Pumpkins tabs @ 911Tabs

Song: Ascendo

Release: Smell The Fuzz

Artist: The Smashing Pumpkins

Author: Craig Newnes <cnewnes@jetstream.net>

Tuning: standard

 

-*-*-*-*-*-*-*-*-*-*-*-*-*-*-*-*-*-*-*-*-*-*-*-*-*-*-*-*-*-*-*-*-*-*-*-

 

(it doesn't really matter how you tune it,

the song is just as easy in E or Eb.

Just transpose the tab up a semi-tone if

you want to drop your guitar a half step)

 

This tab is the main guitar part,

Billy plays a crazy solo over it for the whole song.

As a result of its size, the tab only shows the G and B strings.

Those are the only ones you need anyway.

 

B|-9-11-13-9-11-13-9-11-9--7-9-11-7-9-11-7-9-7--5-7-9-5-7-9-5-7-5--3-5-7-3-5-7-3-5-3--|

G|------------------------------------------------------------------------------------|

 

B|-4-6-8-4-6-8-4-6-4--2-4-6-2-4-6-2-4-2--3-5-7-3-5-7-3-5-3--1-3-5-1-3-5-1-3-1--|

G|-----------------------------------------------------------------------------|

 

B|-2-4-6-2-4-6-2-4-2--0-2-4-0-2-4-0-2-0--1-3-5-1-3-5-1-3-1---------------------|

G|----------------------------------------------------------3-5-7-3-5-7-3-5-3--|

 

B|-----------------------------------------------------------------------------|

G|-4-6-8-4-6-4--6-8-10-6-8-6--7-9-11-7-9-7--9----------------------------------|

 

B|-9-11-13-9-11-13-9-11-9--7-9-11-7-9-11-7-9-7--9-11-13-9-11-13-9-11-9-------|

G|---------------------------------------------------------------------------|

 

B|-7-9-11-7-9-11-7-9-7--5-7-9-5-7-9-5-7-5--3-5-7-3-5-7-3-5-3--4-6-8-4-6-8-4-6-4--|

G|-------------------------------------------------------------------------------|

 

B|-2-4-6-2-4-6-2-4-2--3-5-7-3-5-3--5-7-9-5-7-5--7--------------------------------|

G|-------------------------------------------------------------------------------|

 

B|-9-11-13-9-11-13-9-11-9--9-11-13-9-11-13-9-11-9--7-9-11-7-9-11-7-9-7--|

G|----------------------------------------------------------------------|

 

B|-5-7-9-5-7-9-5-7-5--3-5-7-3-5-7-3-5-3--4-6-8-4-6-4--6-8-10-6-8-6--|

G|------------------------------------------------------------------|

 

B|-8-10-12-8-10-8--10----------12-----------------------------------|

G|------------------------------------------------------------------|

 

Return to my to my Smashing Pumpkins tabs page

The Tablature is Copyright its respective owners.

Sign Up For My Newsletter
Subscribe | Unsubscribe

Site Map | Disclaimer | Privacy Policy | Media Kit | Submissions/Corrections

Website © 2000-2014 mattsmusicpage.com. All rights reserved.

Legal & DMCA: Matt's Music Page has been providing lyrics and tabs in a legal way, paying royalties each year to a few organizations. Then, all lyrics and tabs were removed from the site. Now, there's a new owner to the site, which purchased it August 26, 2014, and he is in negotiation to obtain licensing from BMI at the moment. If you have a specific DMCA request -- please do not hesitate to contact me via the contact button on top. I will do my very best to keep this site fully legal.

Get our toolbar!

 

1939 LYRIC THEATRE New York PHOTO
$5.83
1939 LYRIC THEATRE New York PHOTO picture


Star Spangled Banner or Marines Hymn lyrics signed by WWII Charles W. Lindberg
$10.0
Star Spangled Banner or Marines Hymn lyrics signed by WWII Charles W. Lindberg picture


OLD LARGE HISTORIC PHOTO OF THE LYRIC THEATRE, SYDNEY c1930s, WAR BONDS BOOTH
$7.42
OLD LARGE HISTORIC PHOTO OF THE LYRIC THEATRE, SYDNEY c1930s, WAR BONDS BOOTH picture


SONG OF REVOLUTION CARD SET WITH 13 MOST FAVORED COMMUNIST SONGS LYRICS + NOTES
$24.99
SONG OF REVOLUTION CARD SET WITH 13 MOST FAVORED COMMUNIST SONGS LYRICS + NOTES picture


OLD LARGE HISTORIC PHOTO OF THE LYRIC THEATRE, SYDNEY c1930s, WAR LOANS BOOTH
$7.42
OLD LARGE HISTORIC PHOTO OF THE LYRIC THEATRE, SYDNEY c1930s, WAR LOANS BOOTH picture