Your One-Stop Source For
Music Lyrics
Bass and Guitar Tabs
and More...
>Music Lyrics Bass and Guitar Tabs

 

The Tabs Are Below

Learn To Read Tab
Chords Handbook
Corrections & Additions
Get Official Tab
Smashing Pumpkins tabs @ 911Tabs

The Aeroplane Flies High

Smashing Pumpkins

 

 

Main Riff:(clean guitar, then dist. guitar) Repeat many times

E|----------------------------------------------------------------------

B|----------------------------------------------------------------------

G|------------------------------------2-2-2-2-2-2-2-2-2-2-2--5-5--------

D|-3-3-3-3-3-3-3-3--1-1-1-1-1--0-0-0--2-2-2-2-2-2-2-2-2-2-2--5-5--5-5--0

A|-3-3-3-3-3-3-3-3--1-1-1-1-1--0-0-0--0-0-0-0-0-0-0-0-0-0-0--3-3--5-5--0

E|-3-3-3-3-3-3-3-3--1-1-1-1-1--0-0-0--x-x-x-x-x-x-x-x-x-x-x-------5-5--0

 

Bridge Riff:(dist.guitar)

E|------------------------

B|------------------------

G|---------2--5-5--------- Repeat 3x i think

D|-3--1-0--2--5-5--5-5--0-

A|-3--1-0--0--3-3--5-5--0-

E|-3--1-0--x-------5-5--0-

End Riff:(dist. guitar)

E|---------------------------------

B|---------------------------------

G|---------------------------------

D|-1-1-1--0-0-0--7-7-7-7-7-7-7-7-7-

A|-1-1-1--0-0-0--7-7-7-7-7-7-7-7-7-

E|-1-1-1--0-0-0--7-7-7-7-7-7-7-7-7-

 

 

 

Return to my to my Smashing Pumpkins tabs page

The Tablature is Copyright its respective owners.

Sign Up For My Newsletter
Subscribe | Unsubscribe

Site Map | Disclaimer | Privacy Policy | Media Kit | Submissions/Corrections

Website © 2000-2014 mattsmusicpage.com. All rights reserved.

Legal & DMCA: Matt's Music Page has been providing lyrics and tabs in a legal way, paying royalties each year to a few organizations. Then, all lyrics and tabs were removed from the site. Now, there's a new owner to the site, which purchased it August 26, 2014, and he is in negotiation to obtain licensing from BMI at the moment. If you have a specific DMCA request -- please do not hesitate to contact me via the contact button on top. I will do my very best to keep this site fully legal.

Get our toolbar!

 

JFK A MEMORIAL ALBUM RECORD VINYL LOT of 2 and 1963 JFK newspaper clipping
$18.0
JFK A MEMORIAL ALBUM RECORD VINYL LOT of 2 and 1963 JFK newspaper clipping picture


Junk Food Sesame Street Muppet Studios Records ANIMAL Vinyl shirt L NWT
$18.99
Junk Food Sesame Street Muppet Studios Records ANIMAL Vinyl shirt L NWT picture


LOT OF 42 NOS VINYL CENTER INSERTS FOR 45 RPM RECORDS
$6.99
LOT OF 42 NOS VINYL CENTER INSERTS FOR 45 RPM RECORDS picture


WALT DISNEY WORLD EPCOT CENTER VOICES OF LIBERTY record album LP vinyl
$10.0
WALT DISNEY WORLD EPCOT CENTER  VOICES OF LIBERTY record album LP vinyl picture


Footloose Vinyl Record 78
$9.99
Footloose Vinyl Record 78  picture