Your One-Stop Source For
Music Lyrics
Bass and Guitar Tabs
and More...
Music Lyrics Bass and Guitar Tabs

 

The Tabs Are Below

Learn To Read Tab
Chords Handbook
Corrections & Additions
Get Official Tab
Smashing Pumpkins tabs @ 911Tabs

Smashing Pumpkins

1979

 

E :----------------|-----------------|----------------|----- 3|

B :----------------|-----------------|----------------|----- ||

G :--8-8-8-8-8-9--4|-4-4-4-4-4-4-----|----------------|-----*||

D :--8-8-8-8-8-9--4|-4-4-4-4-4-4---b6|-7-4-2-2-2-4-6-9|--9-9*||

A :--6-6-6-6-6-7--2|-2-2-2-2-2-2-0--0|-0-0-0-0-0-0-0-0|--0-0 ||

E :----0---0---0--0|-0-0-0-0-0-0-----|----------------|----- ||

A You don't need to always hit the E

 

E :--------------|------------------|----------------|-----------------|

B :--------------|------------------|----------------|-----------------|

G :-11--11-11-11-|11-11\-4--4-4--4-4|-4--------------|-----------------|

D :-11--11-11-11-|11-11\-4--4-4--4-4|-4--------4--4-4|-4-4--4-/9--9-9--|

A :--9---9--9--9-|-9--9\-2--2-2--2-2|-2--------4--4-4|-4-4--4-/7--7-7--|

E :--------------|------------------|----------2--2-2|-2-2--2-/7--7-7--|

Back to A

 

E :---------| ---------------------|-----------------|-------------- 3|-|

B :---------| ----5-------4--4-4-5-|-5-5-------------|-------------- ||-|

G :---------|*----4-4-4-4-4--4-4-4-|-4-4-------------|--------------*||-|

D :9-9-9----|*-6--6-6-6-6-6--6-6-6-|-6-6---b6-7-4-2-2|-2-4-6-9--9-9-*||4|

A :7-7-7----| -7--7-7-7-7-7--7-7-7-|-7-7-0--0-0-0-0-0|-0-0-0-0--0-0- ||4|

E :7-7-7----| -0--0-0-0-0-0--0-0-0-|-0-0-------------|-------------- ||2|

B

 

E :----------------|----------------|----------------|-----------------|

B :----------------|----------------|----------------|-----------------|

G :----------------|----------------|----------------|-----------------|

D :--4-4-4-4--4-/9-|-9-9--9-9-9-----|----4--4-4-4-4--|4-/7--7-7--7-7-7-|

A :--4-4-4-4--4-/9-|-9-9--9-9-9-----|----4--4-4-4-4--|4-/7--7-7--7-7-7-|

E :--2-2-2-2--2-/7-|-7-7--7-7-7-----|----2--2-2-2-2--|2-/5--5-5--5-5-5-|

Back to A Back 2 B

 

E :-| -- 12--- 3|-- 6|

B :-| -- ||--- ||-- ||

G :-|*--*||---*||--*||

D :-|*9-*||11-*||7-*||

A :-| 9- ||11- ||7- ||

E :-| 7- ||-9- ||5- ||

Brought to you by Wildt84271

If you would like to join a mailing list for tablature e-mail me a request. I will fill you in on it then.

 

 

 

Return to my to my Smashing Pumpkins tabs page

The Tablature is Copyright its respective owners.

Sign Up For My Newsletter
Subscribe | Unsubscribe

Site Map | Disclaimer | Privacy Policy | Media Kit | Submissions/Corrections

Website © 2000-2014 mattsmusicpage.com. All rights reserved.

Legal & DMCA: Matt's Music Page has been providing lyrics and tabs in a legal way, paying royalties each year to a few organizations. Then, all lyrics and tabs were removed from the site. Now, there's a new owner to the site, which purchased it August 26, 2014, and he is in negotiation to obtain licensing from BMI at the moment. If you have a specific DMCA request -- please do not hesitate to contact me via the contact button on top. I will do my very best to keep this site fully legal.

Get our toolbar!