Your One-Stop Source For
Music Lyrics
Bass and Guitar Tabs
and More...
Music Lyrics Bass and Guitar Tabs

 

The Tabs Are Below

Learn To Read Tab
Chords Handbook
Corrections & Additions
Get Official Tab
Simple Plan tabs @ 911Tabs

WORST DAY EVER - Simple Plan

-------------------------------------------------------------------------------

 

By:Steve (From the home town of Simple Plan)

 

Intro guitar 1 x3 (and riff after chorus)

e|---------------------------------|------------------------------------------|

B|---------------------------------|------------------------------------------|

G|--4--6--8--9--11--13--15--16-----|--4--6--8--11-----------------------------|

D|--x--x--x--x--x---x---x---x------|--x--x--x--x------xxxxx-------------------|

A|--2--4--6--7--9---11--13--14-----|--2--4--6--9------xxxxx-------------------|

E|---------------------------------|------------------xxxxx-------------------|

 

Intro guitar 2 x3 (and riff after chorus)

e|---------------------------------|------------------------------------------|

B|---------------------------------|------------------------------------------|

G|--4------------------------------|------------------------------------------|

D|--4-----------4------------------|--6--------2------xxxxx-------------------|

A|--2-----------4------------------|--6--------2------xxxxx-------------------|

E|--------------2------------------|--4--------0------xxxxx-------------------|

 

Verse 1: guitar 1&2 (guitar 1) x2 (Both)1st time (both)2nd time

e|--------------|------------------|--------------------|---------------------|

B|----2---------|------------------|--------------------|---------------------|

G|-----4-3-3-44-|---44443444-------|-------4-Let ring...|---------------------|

D|--------------|Play this during--|-2--4--4------------|-6--4--2--4-Let ring.|

A|--2---2-2-2---|second verse after|-2--4--2------------|-6--4--2--4----------|

E|--------------|first riff--------|-0--2---------------|-4--2--0--2----------|

p.m.. p.m...

Chorus:

e|----------------------------------------------------------------------------|then play intro riff.

B|----------------------------------------------------------------------------|

G|-4-----4---------------------4-----------------4--------6-------------------|

D|-4--2--4--4--2---------------4--6--4-----------4--2--6--6--2-Cut off--2--4--|

A|-2--2--2--4--2---------------2--6--4-----------2--2--6--4--2----------2--4--|

E|----0-----2--0--2h4p2-0h2-------4--2--0h2-0h2-----0--4-----0----------0--2--|

 

Verse 2: (Both) (guitar 1 plays single notes)

e|----------------------------------------------------------------------------|

B|----------------------------------------------------------------------------|

G|--4--------------------------------(4444446666611)--------------------------|

D|--4---------------------------------6--4--2--4------------------------------|

A|--2---------------------------------6--4--2--4------------------------------|

E|------------------------------------4--2--0--2------------------------------|

p.m.then slowly play without p.m.

 

Bridge: Guitar 2 Guitar 1 x2 then play

e|--------------------------|--14-14-14---------|-14---14-14-14-------16-16---|

B|--------------------------|----------18-18-18-|----18-------18-18-18--------|

G|--6-----6-----------------|-------------------|---18------------------------|

D|--6--6--6--6--4--3--------|-------------------|-----------------------------|

A|--4--6--4--6--4--3--------|-------------------|-----------------------------|

E|-----4-----4--2--1--------|-------------------|-----------------------------|

 

Clean Chorus part and outro

e|-(4)(2)(4)(4)(2)------------------------------------|---------|-------------|

B|-(4)(2)(4)(4)(2)------------------------------------|---------|-------------|

G|--6-(2)-6-(4)(2)-------6-----------------6--------8-|---------|--6----------|

D|--6--4--6--6--4--x-xx--6--8--6-----------6--4--8--8-|-4-6-4-6-|--6--4-------|

A|--4--4--4--6--4--x-xx--4--8--6-----------4--4--8--6-|-4-6-4-6-|--4--4-------|

E|-----2-----4--2--x-xx-----6--4-2h4-2h4------2--6----|-2-4-2-4-|-----2-------|

listen to the song to get the order down

 

 

Return to my Simple Plan tabs page

The Tablature is Copyright its respective owners.

Sign Up For My Newsletter
Subscribe | Unsubscribe

Site Map | Disclaimer | Privacy Policy | Media Kit | Submissions/Corrections

Website © 2000-2014 mattsmusicpage.com. All rights reserved.

Legal & DMCA: Matt's Music Page has been providing lyrics and tabs in a legal way, paying royalties each year to a few organizations. Then, all lyrics and tabs were removed from the site. Now, there's a new owner to the site, which purchased it August 26, 2014, and he is in negotiation to obtain licensing from BMI at the moment. If you have a specific DMCA request -- please do not hesitate to contact me via the contact button on top. I will do my very best to keep this site fully legal.

Get our toolbar!

 

Starbucks You Are Here Coffee Mug/Cup KENTUCKY - Horses, Banjo, Blue, White
$19.99
Starbucks You Are Here Coffee Mug/Cup KENTUCKY - Horses, Banjo, Blue, White picture


KNOWLES ROCKWELL HERITAGE "THE BANJO PLAYER" FIRST EDITION 1989 PLATE COA
$5.99
KNOWLES ROCKWELL HERITAGE


Vintage Postcard 1981 Disney World Banjo Kings Main Street USA 1981 Postmark
$4.99
 Vintage Postcard 1981 Disney World Banjo Kings Main Street USA 1981 Postmark picture


Banjo Barometer With Thermometer Hygrometer 490mm
$84.76
Banjo Barometer With Thermometer Hygrometer 490mm picture


ANTIQUE JAPANESE NIPPON FIGURINE SET OF 3 WOMEN GEISHA PLAYING DRUM BANJO FAN
$24.0
ANTIQUE JAPANESE NIPPON FIGURINE SET OF 3 WOMEN GEISHA PLAYING DRUM BANJO FAN picture