Your One-Stop Source For
Music Lyrics
Bass and Guitar Tabs
and More...
Music Lyrics Bass and Guitar Tabs

 

The Tabs Are Below

Learn To Read Tab
Chords Handbook
Corrections & Additions
Get Official Tab
Simple Plan tabs @ 911Tabs

Author/Artist: Simple Plan

Title: Perfect

Instroment: Guitar (Preferably Accoustic)

Transcribed by: Darcy Brown

Email: high_joe69@hotmail.com

 

This version is in Drop D,

 

Its made on acoustic, so i don't know if it will sound right on electric, but

anyways, the strumming is not right, but you'll probably want to modify the

strumming to suit the way you like to play it anyways. These tabs aren't right

but it sounds like it!

 

 

[Intro]

----------------------------------------------------------------------------

----------------------------------------------------------------------------

-888------888-1012----------------------------------------------------------

-888-88-1-888-8-10-88-1-----------------------------------------------------

-656-66-1-656-8-10-66-1-----------------------------------------------------

-----65-1----------65-1-----------------------------------------------------

 

-------------------------------------------------------------------------------

------------888-777----------------888-777-10-8-7------------------------------

-888-101010-888-777-----888-101010-888-777-10-8-7------------------------------

-888-101010-666-555-x3--888-101010-666-555-8--6-5------------------------------

-666-8-8-8--666-555-----666-8-8-8--666-555-8--6-5------------------------------

-------------------------------------------------------------------------------

 

[Verse]

------------------------------------------------------------------------------

------------------------------------------------------------------------------

-8888------8888-----------------------88888888---------------------------8----

-8888-6666-8888-88-66-x2---8888888-x2-88888888-x2-555555--88888888----55-8----

-6666-6666-6666-88-66------6666666----66666666----555555--66666666-x2-55-6----

------6666------88-66------6666666----------------555555--66666666----55------

 

[chorus]

--------------------------------------------------------------------------

--------------------------------------------------------------------------

-88888888------------------ 88888888--------------------------------------

-88888888-88888888-88888888-88888888-x2-----------------------------------

-66666666-88888888-66666666-66666666--------------------------------------

----------88888888-66666666-----------------------------------------------

 

 

[The part after second time singing course]

-----------------------------------------------------------------

-----------------------------------------------------------------

----------88888888----------------------------------------8------

-66666666-88888888-x2--1010101010101010-88888888-66666666-8------

-66666666-66666666-----1010101010101010-88888888-66666666-6------

-66666666--------------1010101010101010-88888888-66666666--------

 

After this part you play the intro, and replace the heavy part of the intro with

the chorus and you play and sing the chorus 2 times.

 

Then you end on...

 

-----

-----

-----

--6--

--6--

--6--

 

Return to my Simple Plan tabs page

The Tablature is Copyright its respective owners.

Sign Up For My Newsletter
Subscribe | Unsubscribe

Site Map | Disclaimer | Privacy Policy | Media Kit | Submissions/Corrections

Website © 2000-2014 mattsmusicpage.com. All rights reserved.

Legal & DMCA: Matt's Music Page has been providing lyrics and tabs in a legal way, paying royalties each year to a few organizations. Then, all lyrics and tabs were removed from the site. Now, there's a new owner to the site, which purchased it August 26, 2014, and he is in negotiation to obtain licensing from BMI at the moment. If you have a specific DMCA request -- please do not hesitate to contact me via the contact button on top. I will do my very best to keep this site fully legal.

Get our toolbar!

 

VINTAGE SORRENTO MUSIC JEWELRY BOX
$45.0
VINTAGE SORRENTO MUSIC JEWELRY BOX picture


VINTAGE LACQUERED MUSIC BOX JAPAN
$25.99
VINTAGE LACQUERED MUSIC BOX JAPAN picture


Vintage Kehlsteinhaus Bavaria Germany Colorscope Cow Bell View Master Music Box
$8.99
Vintage Kehlsteinhaus Bavaria Germany Colorscope Cow Bell View Master Music Box picture


VINTAGE SCHMIDT Signed Collectible Musical Turning Clown
$9.99
VINTAGE  SCHMIDT Signed Collectible Musical Turning Clown picture


Vintage - Linen - Postcard - Stage - Radio City Music Hall - New York City
$3.75
Vintage - Linen - Postcard - Stage - Radio City Music Hall - New York City   picture