Your One-Stop Source For
Music Lyrics
Bass and Guitar Tabs
and More...
>Music Lyrics Bass and Guitar Tabs

 

The Tabs Are Below

Learn To Read Tab
Chords Handbook
Corrections & Additions
Get Official Tab
Simple Plan tabs @ 911Tabs

Simple Plan - Grow up

-------------------------------------------------------------------------------------

 

By: Mimious

 

Note: Tab is not 100%. So you will find mistakes. So please be kind and correct me

on it. Its will help improve me tabbing skill :) O and listen to the song, sory my

laziness is always catching on to me so my timing is prolly way off for guitar 2

 

Intro

========

 

Guitar1

 

e ------------------------------------------------------------------------|

B ------------------------------------------------------------------------|

G 44---------------44---------------44-----------------44-----------------|

D 44-444-222-444---44-444-222-444---44-444-222-444-----44-444-222-444-----|

A 22-444-222-444---22-444-222-444---22-444-222-444-----22-444-222-444-----|

E ---222-000-222------222-000-222------222-000-222--------222-000-222-----|

... ... ... ... ... ... ... ... ... ... ... ...

 

Guitar2

 

e ------------------------------------|

B ------------------------------------|

G ------------------------------------|

D ------------------------------------|x2

A -9/7/6--9/7/6--9-----9/7/6--9/7/6--2|

E ------------------------------------|

 

Pre-Chorus

=========

 

Guitar1 For First part only

v

e ---------------------|---------|

B ---------------------|---------|

G ---------------------|---------|

D 222-444--66442-------|-222222-4|

A 222-444--66442-------|-222222-4|

E 000-222--44220-------|-000000-2|

......

Guitar2

 

e ----------------------------------|

B ----------------------------------|

G ----------------------------------|

D ----------------------------------|

A 9/7/6-9/7/6-9-2--4-7-6-2--9---9999|

E ----------------------------------|

 

Chorus

=========

 

Guitar1

 

e ----------------------------|

B ----------------------------|

G 444444-666666---------------|

D 444444-666666-222222-444444-|x2

A 222222-444444-222222-444444-|

E --------------000000-222222-|

 

Guitar2

 

e -----------------|

B -----------------|

G -----------------|

D -----------------|x2

A --976-2--979-2---|

E -----------------|

 

Chorus Pt2

=========

 

Guitar1

 

e ---------------|

B ---------------|

G ---------------|

D 222222-444444--|(x2) <-\

A 222222-444444--| |

E 000000-222222--| |

|

Guitar2 | Play twice when ending

|

e ---------------| |

B ---------------| |

G ---------------| |

D ---------------|(x2) <-/

A 777777-999979-2|

E ---------------|

 

Interlude

==========

 

Guitar1

 

e --97---97---97--11-11-99-77| |-97--4---2--|

B 7-----7----7---------------| |------------|

G ---------------------------|x2|------------|

D ---------------------------| |------------|

A ---------------------------| |------------|

E ---------------------------| |------------|

 

Guitar2

 

e --------------|

B --------------|

G 4-------------|

D 4-4-2-666-444-|x2

A 2-4-2-666-444-|

E --2-0-444-222-|

 

e ------|

B ------|

G 4-----|

D 4-4-2-|

A 2-4-2-|

E --2-0-|

 

Interlude Pt2

=============

 

Guitar1

 

e ---------------------------|

B ---------------------------|

G ---4-----6----9------11----| <- cant figure this part out someone comment me if you get it

D --4-4---6-6--9-9---11--11--|

A -2-----4----7-----9--------|

E ---------------------------|

 

 

Guitar2

 

e ------------------|

B ------------------|

G ------------------|

D ------------------|

A ----976-2---------|

E ------------------|

 

Interlude Pt3

============

 

Guitar 1

 

e ---------------------------|

B ---------------------------|

G ---4-----6----9---11-------|

D --4-4---6-6--9-9--11-------|

A -2-----4----7-----9--------|

E ---------------------------|

 

 

 

 

End

========

 

 

e ----|

B ----|

G ---4|

D 44-4|

A 44-2|

E 22--|

 

 

 

 

 

------------------------------------------------------------------------------

 

Intro

Pre-Chorus

Chorus x2

Chorus Pt2

Intro

Pre-Chorus

Chorus

Chorus Pt2

Interlude

Interlude Pt2

Interlude Pt3

Chorus x4

Chorus Pt2

End

 

 

Return to my Simple Plan tabs page

The Tablature is Copyright its respective owners.

Sign Up For My Newsletter
Subscribe | Unsubscribe

Site Map | Disclaimer | Privacy Policy | Media Kit | Submissions/Corrections

Website © 2000-2014 mattsmusicpage.com. All rights reserved.

Legal & DMCA: Matt's Music Page has been providing lyrics and tabs in a legal way, paying royalties each year to a few organizations. Then, all lyrics and tabs were removed from the site. Now, there's a new owner to the site, which purchased it August 26, 2014, and he is in negotiation to obtain licensing from BMI at the moment. If you have a specific DMCA request -- please do not hesitate to contact me via the contact button on top. I will do my very best to keep this site fully legal.

Get our toolbar!

 

Sexton Revolutionary Civil War Wall Hangings American Eagle, Powder Horn Drum
$14.29
Sexton Revolutionary Civil War Wall Hangings American Eagle, Powder Horn Drum picture


1966 Buddy De Franco Bruce Philp photo Slingerland drums photo vintage print ad
$9.99
1966 Buddy De Franco Bruce Philp photo Slingerland drums photo vintage print ad picture


Tokyo Disneyland TDR "Minnie Oh Minnie" Show Goofy w/ Blue Drum Glitter Pin
$7.99
Tokyo Disneyland TDR


VINTAGE EARLY HALLOWEEN WHISTLE DRUM BLACK CAT PAPER AND WOOD TOY 11 ½” GERMANY
$0.99
VINTAGE EARLY HALLOWEEN WHISTLE DRUM BLACK CAT PAPER AND WOOD TOY 11 ½” GERMANY picture


Giuseppe Armani "Boy with Drum" Number unknown. Gulliver's World Collection
$169.0
Giuseppe Armani