Your One-Stop Source For
Music Lyrics
Bass and Guitar Tabs
and More...
Music Lyrics Bass and Guitar Tabs

 

The Tabs Are Below

Learn To Read Tab
Chords Handbook
Corrections & Additions
Get Official Tab
Simple Plan tabs @ 911Tabs

Song:Christmas List

Band:Simple Plan

Album:No Pads,No Helmets.......Just Balls

 

Credit goes 2 adrian

 

Drop D

 

Intro

 

E|----------------------------------|

B|---6---6---9---9---7---9---6---6--|

G|-----6---6---6---6---6---6---6----|

D|----------------------------------|

A|----------------------------------|

D|----------------------------------|

repeat 4 times

 

then another guitar comes in:

E|-----------------------------------------|

B|-----------------------------------------|

G|---6-6-6-6-6-6-6-6-6-6-6-6---------------|

D|---6-6-6-6-6-6-6-6-6-6-6-6-4-4--4h6-6----|

A|---4-4-4-4-4-4-4-4-4-4-4-4-4-4--4h6-6----|

D|---------------------------4-4--4h6-6----|

 

E|--------------------------- ------------------------------|

B|--------------------------- ------------------------------|

G|---6-6--6-6-6--6----------- ---6~-------------------------|

D|-6-6-6--6-6-6--6-4-4--6-6-- ---6~(let it ring)-6-6-6-6-6-6|

A|-6-4-4--4-4-4--4-4-4--6-6--2x ---4~--------------6-6-6-6-6-6|

D|-6---------------4-4--6-6-- -------------------6-6-6-6-6-6|

 

 

I DONT KNOW THE BASSLINE For The Verse

 

Verse(guitar)

E|---------------------------

B|---------------------------

G|---------------------------

D|-6-6-6-3-3-3-4-4-4-3-3-3---

A|-4-4-4-4-4-4-4-4-4-4-4-4---2x

D|---------------------------

p.m.....................

 

E|---------------------------

B|---------------------------

G|---------------------------

D|---------------------------

A|-4-4-4-6-6-6-8-8-8-9-9-9---

D|-4-4-4-4-4-4-4-4-4-4-4-4---

 

E|-------------------------- |--------------------------

B|-------------------------- |--------------------------

G|-------------------------- |--------------------------

D|--------------------------or|--------------------------

A|-3-3-3-4-4-4-6-6-6-3-3-3-- |-3-3-3-4-4-4-6-6-6-3-3-3--

D|-6-6-6-6-6-6-6-6-6-6-6-6-- |-1-1-1-1-1-1-1-1-1-1-1-1--

 

 

Pre-Chorus

E|--------------------------------------------------------

B|--------------------------------------------------------

G|--------------------------------------------------------

D|-8-8-8-8---6-6-6-6--1-1-1-1-1-1-1-1--4-4-4-4-4-4-4-4--6-

A|-8-8-8-8---6-6-6-6--1-1-1-1-1-1-1-1--4-4-4-4-4-4-4-4--6-

D|-8-8-8-8---6-6-6-6--1-1-1-1-1-1-1-1--4-4-4-4-4-4-4-4--6-

..p.m.. ..p.m. .p.m............

 

E|-----------------------------------------------

B|-----------------------------------------------

G|-6--6-6------------------6-6-------------------

D|-6--6-6-6--6-6-4--4-4-4--6-6-4--4-4-4--4-4-6-6-

A|-4--4-4-6--6-6-4--4-4-4--4-4-4--4-4-3--3-3-6-6-

D|--------6--6-6-4--4-4-4------4--4-4-3--3-3-6-6-

 

E|-----------------------------------------------------------------------------

B|-----------------------------------------------------------------------------

G|-6--6-6----------------6-6---------------------------------------------------

D|-6--6-6-6--6-6-4--4-4--6-6-1-1-1-1-1-1-1-1-4-4-4-4-4-4-4-4-1-1-1-1-1-1-1-1-4-

A|-4--4-4-6--6-6-4--4-4--4-4-1-1-1-1-1-1-1-1-4-4-4-4-4-4-4-4-1-1-1-1-1-1-1-1-4-

D|--------6--6-6-4--4-4------1-1-1-1-1-1-1-1-4-4-4-4-4-4-4-4-1-1-1-1-1-1-1-1-4-

..p.m..........

 

 

intro

 

verse

 

chorus

 

 

 

Bridge

E|--------------------------------------------------------

B|--------------------------------------------------------

G|-------------------6-6-6-6---------------------6~-------

D|-8~----4~----6~----6-6-6-6-6----8----4----6----6--6~-4~-

A|-8~----4~----6~----4-4-4-4-6-4x-8-8x-4-8x-6-8x-4~-6~-4~-

D|-8~----4~----6~------------6----8----4----6-------6~-4~-

 

break(The part with the jingle bells)

 

then(right after break)

E|------------------

B|------------------

G|------------------

D|-1-----4-4--4-6-6-

A|-1-----4-4--4-6-6-

D|-1-10X-4-4--4-6-6-

P.M.

 

chorus

 

intro

 

then finish it with

E|------

B|------

G|------

D|-4~~~-

A|-4~~~-

D|-4~~~-

 

 

Return to my Simple Plan tabs page

The Tablature is Copyright its respective owners.

Sign Up For My Newsletter
Subscribe | Unsubscribe

Site Map | Disclaimer | Privacy Policy | Media Kit | Submissions/Corrections

Website © 2000-2014 mattsmusicpage.com. All rights reserved.

Legal & DMCA: Matt's Music Page has been providing lyrics and tabs in a legal way, paying royalties each year to a few organizations. Then, all lyrics and tabs were removed from the site. Now, there's a new owner to the site, which purchased it August 26, 2014, and he is in negotiation to obtain licensing from BMI at the moment. If you have a specific DMCA request -- please do not hesitate to contact me via the contact button on top. I will do my very best to keep this site fully legal.

Get our toolbar!