Your One-Stop Source For
Music Lyrics
Bass and Guitar Tabs
and More...
>Music Lyrics Bass and Guitar Tabs

 

The Tabs Are Below

Learn To Read Tab
Chords Handbook
Corrections & Additions
Get Official Tab
Simple Plan tabs @ 911Tabs

WORST DAY EVER - Simple Plan

-------------------------------------------------------------------------------

 

By: Billie Biscotti

 

Intro

G|---------------------------------------------------------------------------|

D|----------- 21--------------21------------21------------------------------|

A|--22222---------4 22222---------4-22222-------4----------------------------|

E|---------22--------------22-------------22------44444-00-------------------|

 

Verse 1st time

G|---------------------------------------------------------------------------|

D|---------------------------------------------------------------------------|

A|-----wait-------------- 2 -wait--------------------------------------|

E|---------------00--00---22-22-----------00 00------22-22---000000---222222|

 

Chorus

G|---------------------------------------------------------------------------|

D|---------------------------------------------------------------------------|

A|------22------22-----------------22----------------22--------44------------|

E|---------00------22--00----4202-----44--22---4202-----00--44-----00 -22----|

 

after chorus

G|---------------------------------------------------------------------------|

D|---------------21--------------21------------------------------------------|

A|-----22222--------4--22222----------4--2-----------------------------------|

E|-----------22---------------22---------------------------------------------|

 

verse 2nd time

G|---------------------------------------------------------------------------|

D|---------------------------------------------------------------------------|

A|----22222222--------------------------2222222------------------------------|

E|-----------------000000----2222-------------------00-00--22 22---0000 2222-|

 

bridge

G|---------------------------------------------------------------------------|

D|---------------------------------------------------------------------------|

A|---------444444------------------------------------------------------------|

E|--------------------222222------444444 ------------------------------------|

 

whhooo wwwhhhhoo's

G|---------------------------------------------------------------------------|

D|---------------------------------------------------------------------------|

A|-------------44444---------------------------------------------------------|

E|----------------------444444--------6666666------------22222---------------|

 

 

Return to my Simple Plan bass tabs page

The Tablature is Copyright its respective owners.

Sign Up For My Newsletter
Subscribe | Unsubscribe

Site Map | Disclaimer | Privacy Policy | Media Kit | Submissions/Corrections

Website © 2000-2014 mattsmusicpage.com. All rights reserved.

Legal & DMCA: Matt's Music Page has been providing lyrics and tabs in a legal way, paying royalties each year to a few organizations. Then, all lyrics and tabs were removed from the site. Now, there's a new owner to the site, which purchased it August 26, 2014, and he is in negotiation to obtain licensing from BMI at the moment. If you have a specific DMCA request -- please do not hesitate to contact me via the contact button on top. I will do my very best to keep this site fully legal.

Get our toolbar!

 

Vtg RED Faux-Denim Rhinestone Vinyl 45 RPM 7 inch Record Case Carrier Box 1970s
$8.65
Vtg RED Faux-Denim Rhinestone Vinyl 45 RPM 7 inch Record Case Carrier Box 1970s picture


1967 Walt Disney's happiest Song Vinyl Record
$12.0
1967 Walt Disney's happiest Song Vinyl Record picture


Vintage Walt Disney Cinderella Vinyl Record
$2.0
Vintage Walt Disney Cinderella Vinyl Record picture


VINTAGE BILLY JOEL "52nd Street" 1978 Vinyl Records
$29.99
VINTAGE BILLY JOEL


Vintage 1982 Star Wars Empire Strikes Back Vinyl 45 RPM Record Tote Case R2D2
$6.99
Vintage 1982 Star Wars Empire Strikes Back Vinyl 45 RPM Record Tote Case R2D2 picture