Your One-Stop Source For
Music Lyrics
Bass and Guitar Tabs
and More...
Music Lyrics Bass and Guitar Tabs

 

The Tabs Are Below

Learn To Read Tab
Chords Handbook
Corrections & Additions
Get Official Tab
Simple Plan tabs @ 911Tabs

Simple Plan- When I’m With You

Tabber- boxcaracer

Eb Tuning

 

Intro:

G--------------------

D---------------------

A----44-3-4-88-66

Eb-5----------------

 

Verse:

G-------------------------------

D-------------------------------

A------66-88-66----66------

Eb-55------------55----7-55

 

“Want to feel the way you make me feel when i‘m with you...”

G------------------------------------------------------

D-----------------------------------------------------

A---------------66666666-4444444-66666666

Eb-55555555---------------------------------------

“every time i call you don’t have time...”

G--------------------------------------------------------

D---------------------------------------------------------

A---------------------------------------------------------

Eb-2222222-0000000- rest- 2222222-00000000

 

 

Return to my Simple Plan bass tabs page

The Tablature is Copyright its respective owners.

Sign Up For My Newsletter
Subscribe | Unsubscribe

Site Map | Disclaimer | Privacy Policy | Media Kit | Submissions/Corrections

Website © 2000-2014 mattsmusicpage.com. All rights reserved.

Legal & DMCA: Matt's Music Page has been providing lyrics and tabs in a legal way, paying royalties each year to a few organizations. Then, all lyrics and tabs were removed from the site. Now, there's a new owner to the site, which purchased it August 26, 2014, and he is in negotiation to obtain licensing from BMI at the moment. If you have a specific DMCA request -- please do not hesitate to contact me via the contact button on top. I will do my very best to keep this site fully legal.

Get our toolbar!