Your One-Stop Source For
Music Lyrics
Bass and Guitar Tabs
and More...
Music Lyrics Bass and Guitar Tabs

 

The Tabs Are Below

Learn To Read Tab
Chords Handbook
Corrections & Additions
Get Official Tab
Simple Plan tabs @ 911Tabs

PERFECT - Simple Plan

-------------------------------------------------------------------------------

 

By:Daniel"Slut"Marin

 

INTRO

G|---------------------------------------------------------------------------|

D|---------------------------------------------------------------------------|

A|-666-----------------------------------------------------------------------|

E|----444--------------------------------------------------------------------|

 

VERSE

G|---------------------------------------------------------------------------|

D|---------------------------------------------------------------------------|

A|-STRUM BETWEEN EACH EIGHT--------6-----------------------------------------|

E|------------------------------------4--------------------------------------|

 

PRECHORUS

G|---------------------------------------------------------------------------|

D|---------------------------------------------------------------------------|

A|---------6-----------------------------------------------------------------|

E|-1---4---------------------------------------------------------------------|

 

CHORUS

G|---------------------------------------------------------------------------|

D|---------------------------------------------------------------------------|

A|--6------------------------------------------------------------------------|

E|------6-----8-----4--------------------------------------------------------|

 

BRIDGE

G|---------------------------------------------------------------------------|

D|---------------------------------------------------------------------------|

A|--------------66666666 THAT RIFF 2X-------------------------------------|

E|---4444--6666----------------------------88888888-66666666--44444444-------|

 

 

Return to my Simple Plan bass tabs page

The Tablature is Copyright its respective owners.

Sign Up For My Newsletter
Subscribe | Unsubscribe

Site Map | Disclaimer | Privacy Policy | Media Kit | Submissions/Corrections

Website © 2000-2014 mattsmusicpage.com. All rights reserved.

Legal & DMCA: Matt's Music Page has been providing lyrics and tabs in a legal way, paying royalties each year to a few organizations. Then, all lyrics and tabs were removed from the site. Now, there's a new owner to the site, which purchased it August 26, 2014, and he is in negotiation to obtain licensing from BMI at the moment. If you have a specific DMCA request -- please do not hesitate to contact me via the contact button on top. I will do my very best to keep this site fully legal.

Get our toolbar!