Your One-Stop Source For
Music Lyrics
Bass and Guitar Tabs
and More...
Music Lyrics Bass and Guitar Tabs

 

The Tabs Are Below

Learn To Read Tab
Chords Handbook
Corrections & Additions
Get Official Tab
Simple Plan tabs @ 911Tabs

Simple Plan:Me Against the World

Album:Still Not Getting Any

Bassb3nd3r:I tried my best to make this as good as it gets.

 

Mxtabs [http://www.mxtabs.net]

Intro

G|---------------------------------------------------------------

D|---------------------------------------------------------------

A|---------------------------------------------------------------

E|---0-----0-----4-----3-----------------------------------------x2

 

 

Verse (0:20) (0:15)

G|---------------------------------------

D|---------------------------------------

A|---------------------------------------

E|---0000000000000000-44444444-33333333--

(p.m)**************** ******** ********

 

 

Verse 2 (1:09) second time around

G|--------------------------------------------------

D|--------------------------------------------------

A|-------------44444444------------66666666--------

E|---00000000-----------44444444----------------

(p.m)******** ******** ******** ********

 

 

Pre-Chorus (0:29)

G|----------------------------------------------

D|----------------------------------------------

A|----------------------------------------------

E|---0-----0-----4-----33333333-----------------

 

 

 

Chorus(0:37)

G|--------------------------------------------------

D|--------------------------------------------------

A|-------------44444444------------6-6666666--------

E|---00000000-----------44444444---------------- x2 –0000000-0~~to intro

 

 

Bridge (1:49)

G|---------------------------------------------------------------------

D|---------------------------------------------------------------------

A|---------------------------------------------------------------------

E|---0000000000000000-4444444444444444-00000000000000000000000000000000

(p.m)**************** **************** ********************************

 

(2:04)

G|--------------------------------------------------

D|--------------------------------------------------

A|--------------------------------------------------

E|---44444444-66666666—0-0---0—--0-------------------x2

 

(2:18)

G|--------------------------------------------------

D|--------------------------------------------------

A|--------------------------------------------------

E|---44444444-66666666-44444444-66666666-6-6-6------to chorus

Return to my Simple Plan bass tabs page

The Tablature is Copyright its respective owners.

Sign Up For My Newsletter
Subscribe | Unsubscribe

Site Map | Disclaimer | Privacy Policy | Media Kit | Submissions/Corrections

Website © 2000-2014 mattsmusicpage.com. All rights reserved.

Legal & DMCA: Matt's Music Page has been providing lyrics and tabs in a legal way, paying royalties each year to a few organizations. Then, all lyrics and tabs were removed from the site. Now, there's a new owner to the site, which purchased it August 26, 2014, and he is in negotiation to obtain licensing from BMI at the moment. If you have a specific DMCA request -- please do not hesitate to contact me via the contact button on top. I will do my very best to keep this site fully legal.

Get our toolbar!