Your One-Stop Source For
Music Lyrics
Bass and Guitar Tabs
and More...
Music Lyrics Bass and Guitar Tabs

 

The Tabs Are Below

Learn To Read Tab
Chords Handbook
Corrections & Additions
Get Official Tab
Semisonic tabs @ 911Tabs

Semisonic

Singing In My Sleep

 

 

singin in my sleep

feeling strangely fine

semisonic

tabbed by winams

 

Intro:

 

e -----------------------------------

b ---------4-------4-------4--5------

g ---4--6----4--6-----4--6-----------

D -----------------------------------

A -----------------------------------

E -----------------------------------

 

Verse 1:

 

E

Got your tape and it changed my mind

B

Heard your voice in between the lines

C#m

Come around from another time

A

Where nobody ever goes

 

Verse 2:

 

E

All alone on the overpass

B

Wired and phoned to a heart of glass

C#m

Now I'm falling in love too fast

A

With you or the songs you chose

Inerlude 1:

 

e ----------------------------------------

b ----------------------------------------

g ----------------------------------------

D --7/9--7/9--7/9-9-9-9-9-----------------

A --7/9--7/9--7/9-9-9-9-9-----------------

E --5/7--5/7--5/7-7-7-7-7-----------------

 

And all the stars

Play for me

Say the promise you long to keep

 

Chorus:

 

E B F# A

I can hear you sing it to me in my sleep

E B F# A

I can hear you sing it to me in my sleep

 

e -----------------------------------

b ---------4-------4-------4--5------

g ---4--6----4--6-----4--6-----------

D -----------------------------------

A -----------------------------------

E -----------------------------------

 

Verse 3:

 

E

I've been living in your cassette

B

It's the modern equivalent

C#m

Singing up to a Capulet

A

On a balcony in your mind

 

Verse 4:

 

E

In the City the lion sleeps

B

Pray to Sony my soul to keep

C#m

Were you ever so bright and sweet

A

Did you ever look so nice

 

Interlude 2 Riff: same as Interlude 1

 

And all the sounds

Dream for me

Dive me down in a soul so deep

 

Chorus:

 

E B F# A

I can hear you sing it to me in my sleep

E B F# A

I can hear you sing it to me in my sleep

 

Bridge:

 

Intro:

 

e ----------------------------------- (2X)

b -----------------------------------

g --9--4--6--------------------------

D --9--4--6--7-----------------------

A --7--2--4--7-----------------------

E -----------5-----------------------

 

 

 

e -----------------------------------repeat when needed

b ---------4-------4-------4--5------

g ---4--6----4--6-----4--6-----------

D -----------------------------------

A -----------------------------------

E -----------------------------------

 

Interlude 3: same as Interlude 1

 

And all the sounds

Dream for me

Dive me down in a soul so deep

 

 

Chorus: same chords on chorus

 

Outro: Just pluck the chords above or stick with the rythm

 

E A

Ahaaaaaaaaaaaaa (4X)

 

 

 

comments,suggestions and additions are welcome !!!!! email: winams@yahoo.com

 

 

Sugar

System of a Down

transcribed by winams

 

this is i think the way they play it, ive included the lyrics below

so that as you play your guitar you can sing with it. hope you enjoy the

tab...

 

Drop D

 

Intro:

 

e -----------------------------------------

b -----------------------------------------

g -----------------------------------------

D ---0--7---6---5--------------------------

A ---0--7---6---5--------------------------

D ---0--7---6---5--------------------------

 

Verses:

 

First Part:

 

e -----11--11-10-------8/6---8/6-----------

b ---8-----------11--8---------------------

g -----------------------------------------

D -----------------------------------------

A -----------------------------------------

D------------------------------------------

 

Second Part: played before the chorus, just once

 

e ------11--11-10-------8/6--8/6-----------

b --8-8----------11--8---------------------

g -----------------------------------------

D -----------------------------------------

A -----------------------------------------

D -----------------------------------------

 

Chorus:

 

e -----------------------------------------

b -----------------------------------------

g -----------------------------------------

D ---0--7---6---5--------------------------

A ---0--7---6---5--------------------------

D ---0--7---6---5--------------------------

 

 

 

Then this fast stuffs:

 

1st:

 

e -----------------------------------------

b -----------------------------------------

g -----------------------------------------

D ---0----0--0-----------------------------

A ---0----0--0-----------------------------

D ---0----0--0-----------------------------

 

2nd:

 

e -----------------------------------------

b -----------------------------------------

g -----------------------------------------

D --0-0-0-7--------------------------------

A --0-0-0-7--------------------------------

D --0-0-0-7--------------------------------

 

3rd:All P.M. = palm muted

 

e -----------------------------------------

b -----------------------------------------

g -----------------------------------------

D -----------------------------------------

A --0---7---6---5--------------------------

D --0---7---6---5--------------------------

 

 

 

SUGAR

 

 

The kombucha mushroom people,

Sitting around all day,

Who can believe you,

Who can believe you,

Let your mother pray, (sugar)

 

 

Well I'm not there all the time you know

Some people, some people, some people,

Call it insane, yeah they call it insane, (sugar)

I play Russian roulette everyday, a man's sport,

With a bullet called life, yeah called life,(sugar)

You know that every time I try to go

Where I really want to be,

It's already where I am,

Cause I'm already there….(sugar)

 

 

The kombucha mushroom people,

Sitting around all day,

Who can believe you,

Who can believe you,

Let your mother pray, (sugar)

 

 

I got a gun the other day from Sako,

It's cute, small, fits right in my pocket,

Yeah, right in my pocket, (sugar)

My girl, you know, she lashes out at me sometimes,

And I just kick her, and then she's O.K. ,she's O.K.(sugar)

People are always chasing me down,

Trying to push my face to the ground,

Where all they really want to do,

Is suck out my mother fucking brains, my brains (sugar).

 

 

The kombucha mushroom people,

Sitting around all day,

Who can believe you,

Who can believe you,

Let your mother pray~,

 

 

I sit, in my desolate room, no lights, no music,

Just anger, I've killed everyone,

I'm away forever, but I'm feeling better,

How do I feel, What do I say,

Fuck you, it all goes away,

How do I feel, What do I say,

Fuck you, it all goes away,

How do I feel, What do I say,

In the end it all goes away,

How do I feel, What do I say,

In the end it all goes away,

How do I feel, What do I say,

In the end it all goes away,

How do I feel, What do I say,

In the end it all goes away,

How do I feel, What do I say,

In the end it all goes away,

How do I feel, What do I say,

In the end it all goes away,

In the end it all goes away,

In the end it all goes away,

In the end it all goes away,

In the end it all goes away.

 

 

comments,suggestions and additions are welcome !!!!! email: winams@yahoo.com

 

Thats about it folks.

 

Return to my to my Semisonic tabs page

The Tablature is Copyright its respective owners.

Sign Up For My Newsletter
Subscribe | Unsubscribe

Site Map | Disclaimer | Privacy Policy | Media Kit | Submissions/Corrections

Website © 2000-2014 mattsmusicpage.com. All rights reserved.

Legal & DMCA: Matt's Music Page has been providing lyrics and tabs in a legal way, paying royalties each year to a few organizations. Then, all lyrics and tabs were removed from the site. Now, there's a new owner to the site, which purchased it August 26, 2014, and he is in negotiation to obtain licensing from BMI at the moment. If you have a specific DMCA request -- please do not hesitate to contact me via the contact button on top. I will do my very best to keep this site fully legal.

Get our toolbar!