Your One-Stop Source For
Music Lyrics
Bass and Guitar Tabs
and More...
Music Lyrics Bass and Guitar Tabs

 

The Tabs Are Below

Learn To Read Tab
Chords Handbook
Corrections & Additions
Get Official Tab
Semisonic tabs @ 911Tabs

Song: "Closing Time"

Group: "Semisonic"

Album: "Feeling Strangely Fine"

 

Transcribed by Chris Worfel (LilSkeezer@AOL.com)

 

Piano part played in the background (for guitar):

e------------------------------------------

B----12----12----15----12------------------

G-------12----12----12----12---------------

D------------------------------------------

A------------------------------------------

E------------------------------------------

 

Piano solo (for guitar):

e--------------10-11-10--------------------

B---11---11-13----------13-11----11--------

G-----------------------------12-----------

D------------------------------------------

A------------------------------------------

E------------------------------------------

 

e--------------10-11-10--------------------

B---11---11-13----------13-11----11--------

G-----------------------------12-----------

D------------------------------------------

A------------------------------------------

E------------------------------------------

 

e---------10-11-10-------------------------

B---11-13----------13-11-------------------

G------------------------12----------------

D------------------------------------------

A------------------------------------------

E------------------------------------------

 

Chords: G - D - Am - C

 

Lyrics:

 

Closing time - time for you to go out, go out into the world.

Closing time - turn the lights up over every boy and every girl.

Closing time - one last call for alcohol, so finish your whiskey or beer.

Closing time - you don't have to go home but you can't stay here.

 

I know who I want to take me home.

I know who I want to take me home.

I know who I want to take me home.

Take me home...

 

Closing time - time for you to go back to the places you will be from.

Closing time - this room won't be open 'til your brothers or you sisters come.

So gather up your jackets, and move it to the exits - I hope you have found a

friend.

Closing time - every new beginning comes from some other beginning's end.

 

Yeah, I know who I want to take me home.

I know who I want to take me home.

I know who I want to take me home.

Take me home...

 

Closing time - time for you to go back to the places you will be from...

 

I know who I want to take me home.

I know who I want to take me home.

I know who I want to take me home.

Take me home...

 

Closing time - every new beginning comes from some other beginning's end...

 

Return to my to my Semisonic tabs page

The Tablature is Copyright its respective owners.

Sign Up For My Newsletter
Subscribe | Unsubscribe

Site Map | Disclaimer | Privacy Policy | Media Kit | Submissions/Corrections

Website © 2000-2014 mattsmusicpage.com. All rights reserved.

Legal & DMCA: Matt's Music Page has been providing lyrics and tabs in a legal way, paying royalties each year to a few organizations. Then, all lyrics and tabs were removed from the site. Now, there's a new owner to the site, which purchased it August 26, 2014, and he is in negotiation to obtain licensing from BMI at the moment. If you have a specific DMCA request -- please do not hesitate to contact me via the contact button on top. I will do my very best to keep this site fully legal.

Get our toolbar!