Your One-Stop Source For
Music Lyrics
Bass and Guitar Tabs
and More...
Music Lyrics Bass and Guitar Tabs

 

The Tabs Are Below

Learn To Read Tab
Chords Handbook
Corrections & Additions
Get Official Tab
Ryan Cabrera tabs @ 911Tabs

Ryan Cabrera- on the way down (acoustic) tab from debut album " take it all away"- tabbed by: Matt Manning.

Corrections and Comments- Manning677@aol.com

NTRO/VERSE

 

e|-0--0--0--0--0-0--0---||

B|-0--0--0--0--0-0--0---||

G|-6--6--6--6--6-6--6---||

D|-4--0--7--6--7-6--4---||

A|----------------------||

E|----------------------||

 

 

CHORUS

 

e|-2--2--0--0----|| E|-2--0--2--|

B|-2--3--0--0----|| B|-2--0--3--|

G|-2--2--2--1----||: G|-2--1--2--|

D|-4--0--2--2----|| D|-4--2--0--|

A|-4-----0--2----|| A|-4--2-----|

E|-2--------0----|| E|-4--0-----|

 

BRIDGE

 

e|-0--0--0--0--2--0--2--0--||

B|-0--0--0--0--2--0--3--0--||

G|-1--7--4--7--2--1--2--1--||

D|-2--7--4--7--4--2--0--2--||

A|-2--5--2--5--4--2-----2--||

E|-0-----------2--0--------||

 

Break Down OUTRO

 

e|--0------0----|------0--0--|--0--0|

B|----0--0---0-0|--3-----3---|--0--3|

G|-----2------1-|-----2-----:|--1--2| weird nonsense during the outro with a

D|-4-----2------|0---0----0--|--2--0| sax solo as well

A|--------------|------------|--2---|

E|--------------|------------|--0---|

 

 

Return to my Ryan Cabrera tabs page

The Tablature is Copyright its respective owners.

Sign Up For My Newsletter
Subscribe | Unsubscribe

Site Map | Disclaimer | Privacy Policy | Media Kit | Submissions/Corrections

Website © 2000-2014 mattsmusicpage.com. All rights reserved.

Legal & DMCA: Matt's Music Page has been providing lyrics and tabs in a legal way, paying royalties each year to a few organizations. Then, all lyrics and tabs were removed from the site. Now, there's a new owner to the site, which purchased it August 26, 2014, and he is in negotiation to obtain licensing from BMI at the moment. If you have a specific DMCA request -- please do not hesitate to contact me via the contact button on top. I will do my very best to keep this site fully legal.

Get our toolbar!