Your One-Stop Source For
Music Lyrics
Bass and Guitar Tabs
and More...
Music Lyrics Bass and Guitar Tabs

 

The Tabs Are Below

Learn To Read Tab
Chords Handbook
Corrections & Additions
Get Official Tab
Rolling Stones tabs @ 911Tabs

Let Me Down Slow

The Rolling Stones

A Bigger Bang

Tabed by: PID08

 

Intro:

 

E Esus4 E E

E Esus4 E E

E Esus4 E E

E Esus4 E E

 

Verse:

 

E Esus4 E

You look a little dressed up

E B Bsus4 B

You're acting way too smart

B E Esus4 E

Your face a little bit flushed

E B Bsus4 B

For a walk in the park

B E Esus4 E

And you're clutching your phone

E B Bsus4 B

As you walk in the dark

B E Esus4 E

And your smile's got a twist

E B Bsus4 B

You're looking so hardcore

 

Bridge:

 

B A

If you've something to say

A F#m

Don't be too direct

F#m A

'Cause I feel a little fragile

A B

Don't hit the nail on the head

 

Chorus:

 

B A

Why I said, baby, baby

F#m E Esus4 E

let me down real slow

E B Bsus4 B

Oh no no no

B A

Why I said, baby, baby

F#m E Esus4 E

let me down real slow

E B Bsus4 B

No no no

 

Verse:

There's a swish in your step

There's a gleam in your eye

Are you coloring your hair

With some new kind of dye

 

Bridge:

But the first one to blink

Is the first one to fall

I don't want a confrontation

I've got my back to the wall

 

Chorus:

Oh baby, baby, let me down real slow

Oh no no no

Why I said, baby, baby, let me down real slow

Oh na na no

 

Solo:

 

E B

e|----------------------------------|----------------|

B|-7---7---12\10-10/12------/12-/12-|--12\10-10------|

G|---9---9-11\9---9/11------/11-/11-|--11\-9--9------|

D|----------------------------------|----------------|

A|----------------------------------|----------------|

E|----------------------------------|----------------|

 

E B

e|---------------------|----------------|

B|-10/12------12-12-12-|-12\10-10-10----|

G|--9/11------11-11-11-|-11\9---9--9----|

D|---------------------|----------------|

A|---------------------|----------------|

E|---------------------|----------------|

 

A F#m

e|---------------------|-------------------------------|

B|---------------------|--------------------12---------|

G|------9-11----9-11-9-|-11b13-13r11-----------11b13-9-|

D|--/11------11--------|-------------11-11-------------|

A|---------------------|-------------------------------|

E|---------------------|-------------------------------|

 

A B

e|---------------------|-------------------------|

B|---------------------|-------------------------|

G|-9--11b13-9---9-11-9-|-11b13----11-11-11b13-11-|

D|------------11-------|-------------------------|

A|---------------------|-------------------------|

E|---------------------|-------------------------|

 

Chorus:

Oh baby, baby, let me down real slow

No no no

Let me strech out in the afterglow

Oh na na na na

 

Solo 2 (arranged for standard tuning):

A F#m

e|---0-----0-----0---|---------------|

B|-5---5\4---4\2---0-|---------------|

G|-------------------|-2-2\1---------|

D|-------------------|-------6\4-4\2-|

A|-------------------|---------------|

E|-------------------|---------------|

 

E B

e|-----12-------10----10-|-------------|

B|-/12-------------12----|-12----------|

G|-----------------------|-------------|

D|-----------------------|-------------|

A|-----------------------|-------------|

E|-----------------------|-------------|

w/ slide

 

A F#m

e|---------------------|---------7-----|

B|--12-----12---10--/9-|-----9-----7/9-|

G|---------------------|-9-------------|

D|---------------------|---------------|

A|---------------------|---------------|

E|---------------------|---------------|

w/ slide

 

E B

e|-------12--------10-10-|----------|

B|-------------12--------|-12-------|

G|-----------------------|----------|

D|-----------------------|----------|

A|-----------------------|----------|

E|-----------------------|----------|

w/ slide

 

A F#m

e|--------------|----------------------|

B|--10----10----|-12--15--12\10----/12-|

G|--------------|---------------13-----|

D|--------------|----------------------|

A|--------------|----------------------|

E|--------------|----------------------|

w/ slide

 

E B

e|----12-12-12-12-10-|-------------|

B|-------------------|-12----------|

G|-------------------|-------------|

D|-------------------|-------------|

A|-------------------|-------------|

E|-------------------|-------------|

w/ slide

 

A F#m

e|--------------|-------------|

B|--10----10----|---12---12---|

G|--------------|-------------|

D|--------------|-------------|

A|--------------|-------------|

E|--------------|-------------|

w/ slide

 

E B

e|-------/24------|-------------|

B|-8-----------/9-|-/4----------|

G|---9---------/9-|-/4----------|

D|-------------/9-|-/4----------|

A|----------------|-------------|

E|----------------|-------------|

w/ slide fade out

 

 

Return to my to my Rolling Stones tabs page

The Tablature is Copyright its respective owners.

Sign Up For My Newsletter
Subscribe | Unsubscribe

Site Map | Disclaimer | Privacy Policy | Media Kit | Submissions/Corrections

Website © 2000-2014 mattsmusicpage.com. All rights reserved.

Legal & DMCA: Matt's Music Page has been providing lyrics and tabs in a legal way, paying royalties each year to a few organizations. Then, all lyrics and tabs were removed from the site. Now, there's a new owner to the site, which purchased it August 26, 2014, and he is in negotiation to obtain licensing from BMI at the moment. If you have a specific DMCA request -- please do not hesitate to contact me via the contact button on top. I will do my very best to keep this site fully legal.

Get our toolbar!

 

Hard Rock Pin Las Vegas 4th of july red white and blue guitar
$5.0
Hard Rock Pin Las Vegas 4th of july red white and blue guitar picture


Hard Rock Pin Hollywood Fl Bell Girl with dice luggage and guitar
$5.0
Hard Rock Pin Hollywood Fl Bell Girl with dice luggage and guitar picture


Hard Rock Pin Las Vegas King of Clubs Guitar rare only 3 lines of info on back
$5.0
Hard Rock Pin Las Vegas King of Clubs Guitar rare only 3 lines of info on back picture


Hard Rock Pin Edmonton guitar pin
$5.0
Hard Rock Pin Edmonton guitar pin picture


Lladro Guitar Boy #4614 - Beautiful Piece of Lladro
$109.0
Lladro Guitar Boy #4614 - Beautiful Piece of Lladro picture