Your One-Stop Source For
Music Lyrics
Bass and Guitar Tabs
and More...
Music Lyrics Bass and Guitar Tabs

 

The Tabs Are Below

Learn To Read Tab
Chords Handbook
Corrections & Additions
Get Official Tab
Rolling Stones tabs @ 911Tabs

 

Paint It Black ( Jagger - Richards )

 

 

Intro: guitar-riff and drum-fill ( see below the tab intro )

 

 

I see a red door and I want it painted black

E- B

No colors anymore I want them to turn black

E- B

I see the girls walk by dress-in their summer clothes

E- D G D E-

I have to turn my head until my darkness goes

E- D G D A B7

------------------------------------------------------------

I see a line of cars and they're all painted black

Ei- B

With flowers and my love both never to come back

E- B

I see people turn their heads and quickly look away

E- D G D E-

Like a new born baby it just happens ev'ry day

E- D G D A B7

------------------------------------------------------------

I look inside myself and see my heart is black

E- B

I see my red door and it has been painted black

E- B

Maybe then I'll fade away and not have to face the facts

E- D G D E-

It's not easy facin' up when your-whole world is black P

E- D G D A B7

------------------------------------------------------------

 

Stop instruments , only guitar-riff and lead voice

 

No more will my green sea go turn a deeper blue

 

I could not foresee this thing happening to you

 

( all instruments )

 

If I look hard enough into the settin' sun

E- D G D E-

My love will laugh with me before the mornin' comes

E- D G D A B7

-----------------------------------------------------------

I see a red door and I want it painted black

E- B

No colors anymore I want them to turn black

E- B

I see the girls walk by dress-in their summer clothes

E- D G D E-

I have to turn my head until my darkness goes

E- D G D A B7

-----------------------------------------------------------

Hmm, hmm, hmm,...

E- B

Hmm, hmm, hmm,...

E- B

Hmm, hmm, hmm,... ( change the basic-time in bolero-time )

E- B

Hmm, hmm, hmm,...

E- B

 

I wanna see it painted , painted black

E- B

black as night , black as coal

E- B

I wanna see the sun blotted out from the sky

E- B

I wanna see it painted painted painted painted black Yeah

E- B

 

 

outro repeat four time

E- B

------------------------------------------------------------

The original stones' song is F- but i wrote the song

in E- 'cause it's easier to play for the beginners

------------------------------------------------------------

 

 

INTRO:

 

-----0----0----0--|-----0----0-----0---0-|-

---5---7----8-----|-10----8-----7----5---|-

------------------|----------------------|-

------------------|----------------------|-

------------------|----------------------|-

------------------|----------------------|-

 

 

-|-----0----0----0---|-------2---------

-|--5----4-----5---7-|-2-4-5----5-4-2-4

-|----------------------|-------------------

-|----------------------|-------------------

-|----------------------|--------------------

-|----------------------|--------------------

 

 

 

 

--0---------------|--0-------------------|

--0---------------|--0-------------------|

--0---------------|--0-------------------|

--2---------------|--2-------------------|

--2---------------|--2-------------------|

--0---------------|--0-------------------|

 

 

tab by tonino.vigano@tin.it

 

 

Return to my to my Rolling Stones tabs page

The Tablature is Copyright its respective owners.

Sign Up For My Newsletter
Subscribe | Unsubscribe

Site Map | Disclaimer | Privacy Policy | Media Kit | Submissions/Corrections

Website © 2000-2014 mattsmusicpage.com. All rights reserved.

Legal & DMCA: Matt's Music Page has been providing lyrics and tabs in a legal way, paying royalties each year to a few organizations. Then, all lyrics and tabs were removed from the site. Now, there's a new owner to the site, which purchased it August 26, 2014, and he is in negotiation to obtain licensing from BMI at the moment. If you have a specific DMCA request -- please do not hesitate to contact me via the contact button on top. I will do my very best to keep this site fully legal.

Get our toolbar!