Your One-Stop Source For
Music Lyrics
Bass and Guitar Tabs
and More...
>Music Lyrics Bass and Guitar Tabs

 

The Rolling Stones Guitar Tabs Are Below

Learn To Read Tab
Chords Handbook
Corrections & Additions
Get Official Tab
Rolling Stones tabs @ 911Tabs

LET IT LOOSE

As recorded by The Rolling Stones

(From the 1972 Album EXILE ON MAIN STREET)

 

Words and Music by Mick Jagger And Keith Richards

Transcribed by Kevin O Shea

 

Gtr I (E A D G B E) - 'Rhythm w/ Leslie Effect'

 

Intro

Q=72

F F11/Eb Bb F11/A C C/Bb

4/4

Gtr I

E E E E E E E S S E E E E E E E E E E E E E E E E

|-----0-------------|-----------------|-----------------||-|

|-------3-----------|-0-----0---------|-----2-------2---||-|

|---2---------0-0h2-|-0-------------0-|-------2---------||-|

|-0---------4-------|-----0-------0---|---2-------2---2-||-|

|---------3---------|-----------0-----|-0---------------||-|

|-------------------|---3-----2-------|---------3-------||-|

 

 

Verse 1

F F11/Eb Bb F11/A C C/Bb

E E E E E E E S S E E E E E E E E E E E E E E E E

|-----0-------------|-----------------|-------------------|--|

|-------3-----------|-0-----0---------|-----2-------2-----|--|

|---2---------0-0h2-|-0-------------0-|-------2--------2--|--|

|-0---------4-------|-----0-------0---|---2-------2---(2)-|--|

|---------3---------|-----------0-----|-0-----------------|--|

|-------------------|---3-----2-------|---------3---------|--|

 

 

F F11/Eb Bb F11/A Gm9 Bb

E E E E E E E S S E E E E E E E E S S E E E E S S S S S S

|------0-------------|-----------------|-------------------------|--|

|--------3-----------|-0-----0---------|-------0-----------------|--|

|-h2-2---------0-0h2-|-0-------------0-|---0-----0-------0---0---|--|

|--0---------4-------|-----0-------0---|-4---2-------0---0h2-0h2-|--|

|----------3---------|-----------0-----|-------------0h2---------|--|

|--------------------|---3-----2-------|-----------3-------------|--|

 

 

F F11/Eb Bb F11/A Gm Bb

E E E E E E E S S E E E E E E E E Q S S S S e S S S S S S

|-----0-------------|-----------------|----3---3---3-------------|-|

|-------3-----------|-0-----0---------|----3h5-3h5-3-------------|-|

|---2---------0-0h2-|-0-------------0-|------------------0---0---|-|

|-0---------4-------|-----0-------0---|--------------0---0h2-0h2-|-|

|---------3---------|-----------0-----|--------------0h2---------|-|

|-------------------|---3-----2-------|-0------------------------|-|

 

 

Verse 2

F F11/Eb Bb F11/A C C/Bb

E E E E E E E S S E E E E E E E E E E E E E E E E

|-----0-------------|-----------------|------------------||--|

|-------3-----------|-0-----0---------|-----2-------2---o||--|

|---2---------0-0h2-|-0-------------0-|-------2----------||--|

|-0---------4-------|-----0-------0---|---2-------2---2--||--|

|---------3---------|-----------0-----|-0---------------o||--|

|-------------------|---3-----2-------|---------3--------||--|

 

 

F F11/Eb Bb F11/A Gm

E E E E E E E S S E E E E E E E E Q S S S S e S S S S S S

|-----0-------------|-----------------|----3---3---3-------------|-|

|-------3-----------|-0-----0---------|----3h5-3h5-3-------------|-|

|---2---------0-0h2-|-0-------------0-|------------------0---0---|-|

|-0---------4-------|-----0-------0---|--------------0---0h2-0h2-|-|

|---------3---------|-----------0-----|--------------0h2---------|-|

|-------------------|---3-----2-------|-0------------------------|-|

 

 

F F11/Eb Bb F11/A Gm Bb

E E E E E E E S S E E E E E E E E E S S E S S S S E S S e

|-----0-------------|-------------------|--------------------------|

|-------3-----------|-----0-------------|------------------0-0---0-|

|---2---------0-0h2-|-------0---------0-|---4---4-0-------h2-0h2-2-|

|-0---------4-------|---------0-----0---|---4h5-4-0h2-0h2----------|

|---------3---------|-------------0-----|--------------------------|

|-------------------|-(3)-------2-------|-0------------------------|

 

 

Verse 3

F F11/Eb Bb F11/A C C/Bb

E E E E E E E S S E E E E E E E E E E E E E E E E

|-----0-------------|-----------------|-----------------|--|

|-------3-----------|-0-----0---------|-----2-------2---|--|

|---2---------0-0h2-|-0-------------0-|-------2---------|--|

|-0---------4-------|-----0-------0---|---2-------2---2-|--|

|---------3---------|-----------0-----|-0---------------|--|

|-------------------|---3-----2-------|---------3-------|--|

 

 

F C/Bb Bb F11/A Gm Bb

E E E E E E E S S E E E E E E E E E E E E E S S E E

|-----0-------------|----------------------|--------3-3-----------|----|

|-------3-----------|--------------3-------|-------h5-3-----------|----|

|---2---------0-0h2-|-0-------0---h4--2--2-|-----------------0--0-|----|

|-0---------4-------|-------0--------h4-h4-|-----2------0---h2-h2-|----|

|---------3---------|----------------------|---2--------0h2-------|----|

|-------------------|---(3)----------------|-0--------------------|----|

 

 

F F11/Eb Bb F11/A Gm Bb

E E E E E E E S S E E E E E E E E E E E S S e e E S S

|-----0-------------|-----------------|------------------3-----|----|

|-------3-----------|-0-----0---------|-----------------h5-----|----|

|---2---------0-0h2-|-0-------------0-|------0------0-0----0---|----|

|-0---------4-------|-----0-------0---|-----h2-0---h2-0----0h2-|----|

|---------3---------|-----------0-----|---2----0h2-------------|----|

|-------------------|---3-----2-------|-0----------------------|----|

 

 

F F11/Eb Bb F11/A

E E E E E E E S S E E E E E E E E

|-----0-------------|-----------------|

|-------3-----------|-0-----0---------|

|---2---------0-0h2-|-0-------------0-|

|-0---------4-------|-----0-------0---|

|---------3---------|-----------0-----|

|-------------------|---3-----2-------|

 

 

Bridge

F F11/Eb Bb F11/A

E E E E E E E S S E E E E E E E E 3x

||------0-------------|------------------||--|

||o-------3-----------|-0-----0---------o||--|

||----2---------0-0h2-|-0-------------0--||--|

||--0---------4-------|-----0-------0----||--|

||o---------3---------|-----------0-----o||--|

||--------------------|---3-----2--------||--|

 

 

F F11/Eb Bb F11/A C C7/Bb

E E E E E E E S S E E E E E E E E E E E E E E E E

|-----0-------------|-----------------|-----5-------3---|----|

|-------3-----------|-0-----0---------|-------2---------|----|

|---2---------0-0h2-|-0-------------0-|-----------2---2-|----|

|-0---------4-------|-----0-------0---|---2-------------|----|

|---------3---------|-----------0-----|-0---------------|----|

|-------------------|---3-----2-------|---------3-------|----|

 

 

Interlude

F F11/Eb Bb F11/A C C7/Bb

E E E E E E E S S E E E E E E E E E E E E E E E E

|-----0-------------|-----------------|-----5-------3---|----|

|-------3-----------|-0-----0---------|-------2---------|----|

|---2---------0-0h2-|-0-------------0-|-----------2---2-|----|

|-0---------4-------|-----0-------0---|---2-------------|----|

|---------3---------|-----------0-----|-0---------------|----|

|-------------------|---3-----2-------|---------3-------|----|

 

 

F F11/Eb Bb F11/A Gm Bb

E E E E E E E S S E E E S S e S S E E Q. S S e S S S S S S

|-----0-------------|----------------------|-----------------------|----|

|-------3-----------|-0--------------------|-----8---8-------------|----|

|---2---------0-0h2-|-0-----7---7-----7----|-----7h9-7-------------|----|

|-0---------4-------|---0-0-7h9-7-7-----7\-|-(0)-----------5---5---|----|

|---------3---------|-------------7h9---9\-|--2--------5---5h7-5h7-|----|

|-------------------|----------------------|-----------5h7---------|----|

 

 

F F11/Eb Bb F11/A Gm Bb

Q E E E S S S S S S H S S e S S E Q. S S S S E S S S S

|----5--5---3---3-3-3-3-|-3---------------|----------------------|----|

|---h7-h7---3h5-3-5-3-5-|-3---------------|----------------------|----|

|-----------------------|----7---7--------|----------------------|----|

|-4---------------------|----7h9-7-----7\-|----5-5-5---5-----5---|----|

|-5---------------------|----------7-9-9\-|-2--5-5-5h7-5-5---5h7-|----|

|-----------------------|-----------------|-0------------5h7-----|----|

 

 

F F11/Eb Bb F11/A C C7/Bb

E E E E E E E S S E E E E E E E E E E E E E E E E

|-----0-------------|-----------------|-----5-------3---|----|

|-------3-----------|-0-----0---------|-------2---------|----|

|---2---------0-0h2-|-0-------------0-|-----------2---2-|----|

|-0---------4-------|-----0-------0---|---2-------------|----|

|---------3---------|-----------0-----|-0---------------|----|

|-------------------|---3-----2-------|---------3-------|----|

 

 

Verse 4

F F11/Eb Bb F11/A C C7/Bb

E S S S S E E S S S S E E Q E E E E E E E E E E E E E

|---2-2-2-2-2---2-2-2-2---|----------------|-----5-------3---|----|

|-----------------------1-|---3------------|-----------------|----|

|-------------------------|-4------------0-|-------2---2-----|----|

|-0-----------------------|------------0---|---------------2-|----|

|-------------3-----------|----------0-----|---0-------------|----|

|-------------------------|------3-2-------|---------3-------|----|

 

 

F F11/Eb Bb F11/A Gm Bb

E S S E E E S S E E E Q S S E S S E E Q. E E S S E E

|---2-2-2-----2-2-2---|---------------------|------------10----------|----|

|-------------------1-|---3-----------------|-------8--8-10h12--8----|----|

|---------2-2---------|-4----7---7-----7----|------h9-h9-------h9--0-|----|

|-0-------------------|------7h9-7-----7----|---------------------h2-|----|

|---------------------|------------7h9---9\-|-2----------------------|----|

|---------------------|------------------0--|-0----------------------|----|

 

 

F F11/Eb Bb F11/A Gm Bb

Q E E S S S S S S E H S S E S S E Q. E E E S S e

|-----5--5-3-3---3-3-3-3-|-7----------------|------------3-3---3-|---|

|----h7-h7-5-3-5-3-3-5-3-|-8----------------|-----------h5-3h5-3-|---|

|------------------------|------7---7-------|-------0-0----------|---|

|-0----------------------|------7h9-7-----7-|------h2-0----------|---|

|------------------------|------------7h9-9-|-2------------------|---|

|------------------------|------------------|-0------------------|---|

 

 

F F11/Eb Bb F11/A C C7/Bb

E E E E E E E S S E E E E E E E E E E E E E E E E

|-----0-------------|-----------------|-----5-------3---|----|

|-------3-----------|-0-----0---------|-------2---------|----|

|---2---------0-0h2-|-0-------------0-|-----------2---2-|----|

|-0---------4-------|-----0-------0---|---2-------------|----|

|---------3---------|-----------0-----|-0---------------|----|

|-------------------|---3-----2-------|---------3-------|----|

 

 

F F11/Eb Bb F11/A C C7/Bb

E E S S E E E S S E Q E E E E E E E E E E E E E E

|-----2-2-2-----2-2---|---------------|-----5-------3---|----|

|-------------------1-|---3-----------|-------2---------|----|

|---2---------2-------|-4-----------0-|---2-------2-----|----|

|-0-------------------|-----------0---|---------------2-|----|

|-----------3---------|---------0-----|-0---------------|----|

|---------------------|-----3-2-------|---------3-------|----|

 

 

F F11/Eb Bb F11/A Gm Bb

E S S S S E E S S S S E E S S S S E E E E E Q S S E e S S S S E

|---2-2-2-2-----2---2-2---|---------------------|---3---3-3------------|

|-------3-3-----1-1---1-1-|-0-------------------|---3h5-5-3------------|

|-----------2-----------2-|-0-----0-0-----------|---------------0---0--|

|-0-----------------------|-----0-------------0-|-----------0---0-2-0--|

|-------------3-----------|---2-------2-----0---|-----------0h2--------|

|-------------------------|---------------2-----|-0--------------------|

 

 

F F11/Eb Bb F11/A Gm Bb

Q E E E E E E H S S E E E Q. E E E s s S S

|----5--5--5--3--3--3-|-3-------------------|------3-3-----------||----|

|---h7-h7-h7-h5-h5-h5-|-3----10-10-10-------|-----h5-3-----------||----|

|---------------------|-4-----7--7--7-------|------------0-0-0---||----|

|---------------------|-------7--7--7--7----|------------0-2-----||----|

|-0-------------------|---------------h9-9\-|-2--------0-------2-||----|

|---------------------|------------------0--|-0------------------||----|

 

 

Chorus

F F11/Eb Bb F11/A Gm Bb

E E E E E E E S S Q. E E E E E Q. S S S S S S E E 6x

||------0-------------|-------------------|------3-3-3-3------------||----|

||o-------3-----------|-0-----------------|------3-3-3-5-----------o||----|

||----2---------0-0h2-|-0---------7-------|-------------------0--0--||----|

||--0---------4-------|----------h9--7----|--------------0---h2-h2--||----|

||o---------3---------|-------------h9-9\-|-2------------0h2-------o||----|

||--------------------|------3-2----------|-0-----------------------||----|

 

 

Outro

H.=H

F Eb Bb F11/A Gm

Q. E Q. E H E E E E W

|--5-----5--3----3-|-3---------------|------------*|----|

|-h7----h7-h5----3-|-3---------------|------------*|----|

|------------------|-------7-7-------|------------*|----|

|------------------|------h9-7--7----|------------*|----|

|------------------|-----------h9-9\-|-2----------*|----|

|------------------|--------------0--|-0----------*|----|

 

 

Duration Legend

---------------

W - whole; H - half; Q - quarter; E - 8th; S - 16th; T - 32nd; X - 64th; a - acciaccatura

+ - note tied to previous; . - note dotted; .. - note double dotted

Uncapitalized letters represent notes that are staccato (1/2 duration)

Irregular groupings are notated above the duration line

Duration letters will always appear directly above the note/fret number it represents the

duration for. Duration letters with no fret number below them represent rests. Multi-

bar rests are notated in the form Wxn, where n is the number of bars to rest for. Low

melody durations appear below the staff

 

Tablature Legend

----------------

h - hammer-on

p - pull-off

b - bend

pb - pre-bend

r - bend release (if no number after the r, then release immediately)

/\ - slide into or out of (from/to "nowhere")

s - legato slide

S - shift slide

- natural harmonic

[n] - artificial harmonic

n(n) - tapped harmonic

~ - vibrato

tr - trill

T - tap

TP - trem. picking

PM - palm muting

\n/ - tremolo bar dip; n = amount to dip

\n - tremolo bar down

n/ - tremolo bar up

/n\ - tremolo bar inverted dip

= - hold bend; also acts as connecting device for hammers/pulls

<> - volume swell (louder/softer)

x - on rhythm slash represents muted slash

o - on rhythm slash represents single note slash

 

Misc Legend

-----------

| - bar

|| - double bar

||o - repeat start

o|| - repeat end

*| - double bar (ending)

: - bar (freetime)

$ - Segno

& - Coda

Tempo markers - = BPM(8/16=s8/s16), where s8 = swing 8ths, s16 = swing 16ths

Return to my to my Rolling Stones Guitar Tabs page

The Tablature is Copyright its respective owners.

Sign Up For My Newsletter
Subscribe | Unsubscribe

Site Map | Disclaimer | Privacy Policy | Media Kit | Submissions/Corrections

Website © 2000-2014 mattsmusicpage.com. All rights reserved.

Legal & DMCA: Matt's Music Page has been providing lyrics and tabs in a legal way, paying royalties each year to a few organizations. Then, all lyrics and tabs were removed from the site. Now, there's a new owner to the site, which purchased it August 26, 2014, and he is in negotiation to obtain licensing from BMI at the moment. If you have a specific DMCA request -- please do not hesitate to contact me via the contact button on top. I will do my very best to keep this site fully legal.

Get our toolbar!

 

1992 Press Photo Gary Briggle Singer Lyric Opera Cleveland
$22.0
1992 Press Photo Gary Briggle Singer Lyric Opera Cleveland picture


OLD LARGE HISTORIC PHOTO OF THE LYRIC THEATRE, SYDNEY c1930s, WAR LOANS BOOTH
$5.91
OLD LARGE HISTORIC PHOTO OF THE LYRIC THEATRE, SYDNEY c1930s, WAR LOANS BOOTH picture


OLD LARGE HISTORIC PHOTO OF MONROVIA CALIFORNIA, VIEW OF THE LYRIC THEATER c1930
$6.3
OLD LARGE HISTORIC PHOTO OF MONROVIA CALIFORNIA, VIEW OF THE LYRIC THEATER c1930 picture


OLD LARGE HISTORIC PHOTO OF THE LYRIC THEATRE, SYDNEY c1930s, WAR BONDS BOOTH
$5.91
OLD LARGE HISTORIC PHOTO OF THE LYRIC THEATRE, SYDNEY c1930s, WAR BONDS BOOTH picture


EARLY ALL ORIGINAL 1960’S AMI “LYRIC “ STEREO JUKEBOX FOR RESTORATION
$1195.0
EARLY  ALL ORIGINAL 1960’S AMI “LYRIC “ STEREO JUKEBOX FOR RESTORATION   picture