Your One-Stop Source For
Music Lyrics
Bass and Guitar Tabs
and More...
Music Lyrics Bass and Guitar Tabs

 

The Tabs Are Below

Learn To Read Tab
Chords Handbook
Corrections & Additions
Get Official Tab
RBF tabs @ 911Tabs

Artist: Reel Big Fish

Albumn: Why Do They Rock So Hard?

Song : We Care

Tabbed

By: Matt Hendricks

matthendricks@hotmail.com

 

KEY:

<12> - Natural Harmonic on specified fret

X - Mute

P.M. - Palm Mute

/ - slide up

\ - slide down

b - bend up to specified note

r - release bend

h - hammer on

p - pull off

 

 

Clean:

E-----------------------------------|-------------------------------

B-----------------------------------|-------------------------------

G-<12>------------------------------|-------------------------------

D-<12>------------------------------|-------------------------------

A------5---X--X---5---X--X---5---X--|--2---X---X---2---X---X---2---X

E------3---X--X---3---X--X---3---X--|--0---X---X---0---X---X---0---X

 

Repeat only this part

E------------------------------|-------------------------------------

B------------------------------|-------------------------------------

G------------------------------|-o---------------------------------o-

D-5--X---X---5---X---X---5---X-|-o--7---X---X---7---X---X---7---X--o-

A-3--X---X---3---X---X---3---X-|----5---X---X---5---X---X---5---X----

E------------------------------|-------------------------------------

 

 

 

E----------------------------------|-------------------------------

B----------------------------------|-------------------------------

G----------------------------------|-------------------------------

D----------------------------------|-------------------------------

A---5---X---X---5---X---X---5---X--|--2---X---X---2---X---X---2---X

E---3---X---X---3---X---X---3---X--|--0---X---X---0---X---X---0---X

 

E--------------------------------|---------------------------------

B--------------------------------|---------------------------------

G--------------------------------|---------------------------------

D-5---X---X---5---X---X---5---X--|--7---X---X---7---X---X---7---X--

A-3---X---X---3---X---X---3---X--|--5---X---X---5---X---X---5---X--

E--------------------------------|---------------------------------

 

 

 

E----------------------------------|-------------------------------

B----------------------------------|-------------------------------

G----------------------------------|-------------------------------

D----------------------------------|-------------------------------

A---5---X---X---5---X---X---5---X--|--2---X---X---2---X---X---2---X

E---3---X---X---3---X---X---3---X--|--0---X---X---0---X---X---0---X

 

E--------------------------------|---------------------------------

B--------------------------------|---------------------------------

G--------------------------------|---------------------------------

D-5---X---X---5---X---X---5---X--|--X-X-X-X-X-X-X-7-7-7-7-7-7------

A-3---X---X---3---X---X---3---X--|--X-X-X-X-X-X-X-5-5-5-5-5-5------

E--------------------------------|---------------------------------

 

 

Distortion: P.M......

E--------------------------------------------------------------------

B--------------------------------------------------------------------

G--------------------------------------------------------------------

D------------5----7--9--11--12---------------5-----7-7-7-7-7-7-7-7-7-

A--5----2----3----5--7---9--10-----5----2----3-----5-5-5-5-5-5-5-5-5-

E--3----0--------------------------3----0----------------------------

 

E----------------------------------------------------------<12>--

B------------------------------------------------------<12>------

G--------------------------------------------------<12>----------

D---------------------------------------------/12----------------

A-10-9-7---10---10-9-7----10--10-9-7--10-------------------------

E--8-7-5----8----8-7-5-----8---8-7-5---8-------------------------

 

 

PLAYED TOGETHER

 

First GUITAR: Second GUITAR:

E--------------|-------------

B----7-10-8--7-|-------------

G--7-----------|--4-5-7-5--4-

D--------------|-------------

A--------------|-------------

E--------------|-------------

 

P.M................................................................

E--------------------------------------------------------------------

B--------------------------------------------------------------------

G--------------------------------------------------------------------

D------------------4-4-4-4-4-4-4-4-------------------5-5-5-5-5-5-5-5-

A-5-5-5-5-5-5-5-5--2-2-2-2-2-2-2-2--2-2-2-2-2-2-2-2--3-3-3-3-3-3-3-3-

E-3-3-3-3-3-3-3-3-------------------0-0-0-0-0-0-0-0------------------

 

P.M..............................

E-------------------------------------------------------------------

B-------------------------------------------------------------------

G-------------------------------------------------------------------

D-------------------4-4-4-4-4-4-4-4---------------5--7--------------

A--5-5-5-5-5-5-5-5--2-2-2-2-2-2-2-2-----2---------3--5--5--4-2-4----

E--3-3-3-3-3-3-3-3----------------------0---------------3--2-0-2----

 

SOLO

E----------------------------------------------------------------

B----------------------------------------------------------------

G--7---4-5-7-----------------------------------------------------

D-------------5---------5--7b8-7b8-5h7p5---5--5--------7b8r7p5---

A-----------------5--7-------------------7-5--5--7--7------------

E----------------------------------------------------------------

 

E---15b17--15--12--------12---19b21-21r19----12--15--12----------

B-------------------15-----------------------------------15--12--

G----------------------------------------------------------------

D----------------------------------------------------------------

A----------------------------------------------------------------

E----------------------------------------------------------------

 

E----------------------------------------------------------------

B----------------------------------------------------------------

G--14b16r14--------------12--14b16r14p12-------------------------

D------------12-12-12-14-----------------------------------------

A----------------------------------------------------------------

E----------------------------------------------------------------

 

E-----------------------------------------------------------------

B-----------------------------------------------------------------

G------------------5-4-----5-4------------------------------------

D-------5-7b8r7p5-------5------5--------5-7b8r7p5-----------------

A--5-7------------------------------5-7------------5--------------

E-----------------------------------------------------8-7---8-7-3-

 

E----------------------------------10b12r10---

B------------------8-8----8-8-----------------

G----------------------7-------7--------------

D------5-7b8r7p5------------------------------

A--5-7----------------------------------------

E---------------------------------------------

 

 

Thats the entire song.

Any questions, comments, or other songs you would like me to tab,

feel free to e-mail me at matthendricks@hotmail.com.

 

PLAY HARD

 

 

Return to my to my RBF tabs page

The Tablature is Copyright its respective owners.

Sign Up For My Newsletter
Subscribe | Unsubscribe

Site Map | Disclaimer | Privacy Policy | Media Kit | Submissions/Corrections

Website © 2000-2014 mattsmusicpage.com. All rights reserved.

Legal & DMCA: Matt's Music Page has been providing lyrics and tabs in a legal way, paying royalties each year to a few organizations. Then, all lyrics and tabs were removed from the site. Now, there's a new owner to the site, which purchased it August 26, 2014, and he is in negotiation to obtain licensing from BMI at the moment. If you have a specific DMCA request -- please do not hesitate to contact me via the contact button on top. I will do my very best to keep this site fully legal.

Get our toolbar!