Your One-Stop Source For
Music Lyrics
Bass and Guitar Tabs
and More...
Music Lyrics Bass and Guitar Tabs

 

The Tabs Are Below

Learn To Read Tab
Chords Handbook
Corrections & Additions
Get Official Tab
RBF tabs @ 911Tabs

Band: Reel Big Fish

Song: Vegan Song

verse

(upstrokes)

e|5-5-7-7-5-5-7-7--------------------------------------------------------------------|

B|5-5-7-7-7-7-9-9--------------------------------------------------------------------|

G|6-6-8-8-7-7-9-9-x6-------------------------------------------------------------------|

D|7-7-9-9-7-7-9-9--------------------------------------------------------------------|

A|7-7-9-9-5-5-7-7--------------------------------------------------------------------|

E|5-5-7-7-5-5-7-7--------------------------------------------------------------------|

chorus

e|---------------------------------------------------------------------------|

B|---------------------------------------------------------------------------|

G|--------------------------------------------------------------------------|

D|7-7-7-7-9-9---------------------------------------------------------------------|

A|7-7-7-7-9-9-x4--------------------------------------------------------------------|

E|5-5-5-5-7-7----------------------------------------------------------------------|

verse x6

 

chorus x4

 

bridge

e|---------------------------------------------------------------------------|

B|---------------------------------------------------------------------------|

G|---x5-x7-x9------------5-5-5-5-7-7-7-7-9-9-9-9----9-7----7-------------------------------------|

D|x7-x5-x7-x9-x2-7-7-7-7-5-5-5-5-7-7-7-7-9-9-9-9-x4-9-7-x4-7------------------------------------------------|

A|x7-x3-x5-x7----7-7-7-7-3-3-3-3-5-5-5-5-7-7-7-7----7-5----5-----------------------------------------|

E|x5-------------5-5-5-5----------------------------------------------------------|

verse/trumpet solo

(same chords as verse just played faster)

 

Outro

(same chords as chorus)

 

This is a fun song and isent too hard.

E-mail me with questions, or corrections at Maplesk8er94@cs.com

Thanks.

 

 

Return to my to my RBF tabs page

The Tablature is Copyright its respective owners.

Sign Up For My Newsletter
Subscribe | Unsubscribe

Site Map | Disclaimer | Privacy Policy | Media Kit | Submissions/Corrections

Website © 2000-2014 mattsmusicpage.com. All rights reserved.

Legal & DMCA: Matt's Music Page has been providing lyrics and tabs in a legal way, paying royalties each year to a few organizations. Then, all lyrics and tabs were removed from the site. Now, there's a new owner to the site, which purchased it August 26, 2014, and he is in negotiation to obtain licensing from BMI at the moment. If you have a specific DMCA request -- please do not hesitate to contact me via the contact button on top. I will do my very best to keep this site fully legal.

Get our toolbar!

 

Starbucks You Are Here Coffee Mug/Cup KENTUCKY - Horses, Banjo, Blue, White
$19.99
Starbucks You Are Here Coffee Mug/Cup KENTUCKY - Horses, Banjo, Blue, White picture


KNOWLES ROCKWELL HERITAGE "THE BANJO PLAYER" FIRST EDITION 1989 PLATE COA
$5.99
KNOWLES ROCKWELL HERITAGE


Vintage Postcard 1981 Disney World Banjo Kings Main Street USA 1981 Postmark
$4.99
 Vintage Postcard 1981 Disney World Banjo Kings Main Street USA 1981 Postmark picture


Banjo Barometer With Thermometer Hygrometer 490mm
$84.76
Banjo Barometer With Thermometer Hygrometer 490mm picture


ANTIQUE JAPANESE NIPPON FIGURINE SET OF 3 WOMEN GEISHA PLAYING DRUM BANJO FAN
$24.0
ANTIQUE JAPANESE NIPPON FIGURINE SET OF 3 WOMEN GEISHA PLAYING DRUM BANJO FAN picture