Your One-Stop Source For
Music Lyrics
Bass and Guitar Tabs
and More...
Music Lyrics Bass and Guitar Tabs

 

The Tabs Are Below

Learn To Read Tab
Chords Handbook
Corrections & Additions
Get Official Tab
RBF tabs @ 911Tabs

 

Trendy

Reel Big Fish

 

 

intro:(clean)

C A# G C A# G F

e||--------------3-|---------------3x||-------------3-|--------------|

B||--5--5-5-3--3-3-|-----------------||-5--5-5-3--3-3-|--------------|

G||*-5--5-5-3--3-4-|-x-x--x--x--x-x-*||-5--5-5-3--3-4-|--------------|

D||*-5--5-5-3--3-5-|-x-x--x--x--x-x-*||-5--5-5-3--3-5-|--(distorted)-|

A||--3--3-3-1--1---|-x-x--x--x--x-x--||-3--3-3-1--1---|-----------3/-|

E||----------------|-x-x--x--x--x-x--||---------------|-----------1/-|

C A# G G F F#G C A# G

e||----------------|------------3x||---------------|

B||----------------|--------------||---------------|

G||*-5--5-5-3--3---|-------------*||-5--5-5-3--3---|

D||*-5--5-5-3--3-5-|--5--5-------*||-5--5-5-3--3-5-|

A||--3--3-3-1--1-5-|--5--5--------||-3--3-3-1--1-5-|

E||--------------3-|--3--3-1-2-3--||-------------3-|

 

e|----------------|--------------3-|

B|--3^5^3---------|--------------3-|

G|--------4--54---|--(distorted)-4-|

D|-------------75-|----------------|

A|--(clean)-------|-----3-2-0------|

E|----------------|-----------3----|

 

riff 1:

G C G F 4x

e||--3-3-x-3-x-3-x-3-|-----------------|-x-3-x-3-x-3-x-3-|-x-1-x-1-x-1-x-1-||

B||--3-3-x-3-x-3-x-3-|-x-5-x-5-x-5-x-5-|-x-3-x-3-x-3-x-3-|-x-1-x-1-x-1-x-1-||

G||*-4-4-x-4-x-4-x-4-|-x-5-x-5-x-5-x-5-|-x-4-x-4-x-4-x-4-|-x-2-x-2-x-2-x-2*||

D||*-5-5-x-5-x-5-x-5-|-x-5-x-5-x-5-x-5-|-x-5-x-5-x-5-x-5-|-x-3-x-3-x-3-x-3*||

A||------------------|-----------------|-----------------|-----------------||

E||------------------|-----------------|-----------------|-----------------||

 

verse:2x

G C G F

e|---------------------|-x-8--x-8--x-8--x-8-|-----------------|-x-8---------|

B|-12-12-x-12-x-12-x-12|-x-8--x-8--x-8--x-8-|-x-12-x-12-------|-x-10--------|

G|-12-12-x-12-x-12-x-12|-x-9--x-9--x-9--x-9-|-x-12-x-12-------|-x-10--------|

D|-12-12-x-12-x-12-x-12|-x-10-x-10-x-10-x-10|-x-12-x-12-etc...|-x-10-etc...-|

A|-10-10---------------|--------------------|-----------------|-------------|

E|---------------------|--------------------|-----------------|-------------|

 

riff 2 _1______________________2____________

G C D | G C D | G C D |

e||---------------------|----------------------||-------------|

B||---------------------|----------7-8-10-8-7--||----------r--|

G||*----5--7------------|----5---7------------*||----5--7--e--|

D||*-5--5--7------------|-5--5---7------------*||-5--5--7--s--|

A||--5--3--5-?\-(0)^2^0-|-5--3---5-------------||-5--3--5--t--|

E||--3-------?\---------|-3--------------------||-3-----------|

 

then:(clean)

G Bm C

e|-3-3-x-3-x-2-x-2-|-x-3-x-3-x-3-x-3-|8x

B|-3-3-x-3-x-3-x-3-|-x-5-x-5-x-5-x-5-|

G|-4-4-x-4-x-4-x-4-|-x-5-x-5-x-5-x-5-|("Everybody does it.....")

D|-5-5-x-5-x-4-x-4-|-x-5-x-5-x-5-x-5-|

A|-5-5-------------|-----------------|

E|-3-3-------------|-----------------|

 

then:

C G D D

e|-----------------|-----------------|------------|

B|-5-5-x-5-x-5-x-5-|-3-3-x-3-x-3--7--|-7----------| hit distortion

G|-5-5-x-5-x-5-x-5-|-4-4-x-4-x-4--7--|-7----------| on D chord

D|-5-5-x-5-x-5-x-5-|-5-5-x-5-x-5--7--|-7----------|

A|-3-3---3---3---3-|-5-5---5---5--5--|-5----------|

E|-----------------|-3-3-------------|-----?\-----|

 

then riff 2,

 

then riff 1 1&3/4, cut out last measure,

instead play a F power chord(distorted)

 

then riff 2 again, then rest, then:(distorted)

G B C D

e||------------8x||-----------|-----------------|

B||--------------||-----------|-----------*-*-*-|

G||*--------4-5-*||-7---------|-----*-*-*-2-3-5-| *=muted

D||*-5-5--5-4-5-*||-7---------|-*-*-2-3-5-------|

A||--5-5--5-2-3--||-5---------|-3-5-------------|

E||--3-3--3------||-----------|-----------------|

 

then:(distorted)

C A# G G

e||----------------|----------------||7 1/2x

B||----------------|------------12\-||

G||*-5--5-5-3--3---|------------12\*||

D||*-5--5-5-3--3-5-|-(5)--------12\*||

A||--3--3-3-1--1-5-|-(5)--------10\-||

E||--------------3-|-(3)------------||

 

 

e|-----3--------------|--------------3-|-------5/6--|

B|-3^5----5^3---------|--------------3-|-------5/6--|

G|------------4--54---|--(distorted)-4-|------------|

D|-----------------75-|----------------|----clean---|

A|-(clean)------------|-----3-2-0------|------------|

E|--------------------|-----------3----|------------|

 

 

--------------------------------------------------------------------------------

Trendy

Reel Big Fish

 

chord chart

f f#m g Bb b c d

e|--1--2--3--1--2--3--5--|

b|--1--2--3--3--4--5--7--|

g|--2--2--4--3--4--5--7--|

d|--3--4--5--3--4--5--7--|

a|--3--4--5--1--2--3--5--|

e|--1--2--3--------------|

 

c Bb g

everybody's doin' the fish

c Bb g

yea yea yea

c Bb g

everybody's doin' the fish

c Bb g

yea yea yea

c Bb g f -> g

everybody's doin' the fish

c Bb g f -> g

yea yea yea

c Bb g f -> g

everybody's doin' the fish

c Bb g

yea yea yea

 

[g c g f x4]

 

g c

it's not so bad bein' trendy

g f

everyone who looks like me is my friend

g c

please don't hate me because i'm trendy

g f

they're not gonna laugh at me again

 

[g c d x4]

 

g c g d

everybody does it

g c g d

and i wonder, why don't you?

g c g d

everybody does it...

g c g d

maybe you should too

c g d

cause you don't wanna be left out

[g c d x4]

you wanna be cool

 

g c

it's not so bad bein' trendy

g f

everyone who looks like me is my friend

g c

please don't hate me because i'm trendy

g f

they're not gonna laugh at me...

[g c d x4]

again!

 

[g b c x4]

 

g b c

everybody's makin' fun of me

g b c

cause they say i'm so trendy

g b c

cause i do what others do

g

they'll make fun of me

b c d

they'll make fun of you

 

but i don't wanna be left out

[c Bb g x8]

i wanna be cool!

 

 

Return to my to my RBF tabs page

The Tablature is Copyright its respective owners.

Sign Up For My Newsletter
Subscribe | Unsubscribe

Site Map | Disclaimer | Privacy Policy | Media Kit | Submissions/Corrections

Website © 2000-2014 mattsmusicpage.com. All rights reserved.

Legal & DMCA: Matt's Music Page has been providing lyrics and tabs in a legal way, paying royalties each year to a few organizations. Then, all lyrics and tabs were removed from the site. Now, there's a new owner to the site, which purchased it August 26, 2014, and he is in negotiation to obtain licensing from BMI at the moment. If you have a specific DMCA request -- please do not hesitate to contact me via the contact button on top. I will do my very best to keep this site fully legal.

Get our toolbar!