Your One-Stop Source For
Music Lyrics
Bass and Guitar Tabs
and More...
Music Lyrics Bass and Guitar Tabs

 

The Tabs Are Below

Learn To Read Tab
Chords Handbook
Corrections & Additions
Get Official Tab
RBF tabs @ 911Tabs

TAKE ON ME (SOLO) - Reel Big Fish

-------------------------------------------------------------------------------

 

By: SiMs (SiMs966@aol.com)

 

I haven't seen any tabs for the solo at the end of this song. This is the closest

to correct one you will get! HAVE FUN!

 

This solo is all about speed, so pick as fast as you can!

 

e|---------------------------------------------------------------------------|

B|---------------------------------------------------------------------------|

G|7b(9)-7-6-7-6-7-6-7-6-7-6-7-9-7-6-7-6--------------------------------------|

D|---------------------------------------------------------------------------|

A|---------------------------------------------------------------------------|

E|---------------------------------------------------------------------------|

 

This part is fast as hell

e|--------------------------------------------12b(14)-12---------------------|

B|-10-9-10-9-10-12-10-9-10-9-10-9-10-12-10-9---------------------------------|

G|---------------------------------------------------------------------------|

D|---------------------------------------------------------------------------|

A|---------------------------------------------------------------------------|

E|---------------------------------------------------------------------------|

 

e|--10-9-10-9-10-9-10-9-10-9-10-9----10p9----------------10p9----------------|

B|----------------------------------------12p10h12p10h12------12p10h12p10h12-|

G|---------------------------------------------------------------------------|

D|---------------------------------------------------------------------------|

A|---------------------------------------------------------------------------|

E|---------------------------------------------------------------------------|

 

e|-10p9-------------------10p9-10p9-10p9-10p9--------------------------------|

B|------12p10h12p10h12-------------------------------------------------------|

G|---------------------------------------------------------------------------|

D|---------------------------------------------------------------------------|

A|---------------------------------------------------------------------------|

E|---------------------------------------------------------------------------|

 

e|-9h10h12-----------10h12h14-------------17-17-14-14-16-16-14-14------------|

B|---------10h12h14------------12h14h15--------------------------------------|

G|---------------------------------------------------------------------------|

D|---------------------------------------------------------------------------|

A|---------------------------------------------------------------------------|

E|---------------------------------------------------------------------------|

 

e|---17-17-14-14-16-16-14-14-16h17-17b(19)-----------------------------------|

B|---------------------------------------------------------------------------|

G|---------------------------------------------------------------------------|

D|---------------------------------------------------------------------------|

A|---------------------------------------------------------------------------|

E|---------------------------------------------------------------------------|

 

Have lots of Fun! This might take a while, but you will get it!

E-Mail me if you can figure out any corrections! (SiMs966@aol.com)

 

 

Return to my to my RBF tabs page

The Tablature is Copyright its respective owners.

Sign Up For My Newsletter
Subscribe | Unsubscribe

Site Map | Disclaimer | Privacy Policy | Media Kit | Submissions/Corrections

Website © 2000-2014 mattsmusicpage.com. All rights reserved.

Legal & DMCA: Matt's Music Page has been providing lyrics and tabs in a legal way, paying royalties each year to a few organizations. Then, all lyrics and tabs were removed from the site. Now, there's a new owner to the site, which purchased it August 26, 2014, and he is in negotiation to obtain licensing from BMI at the moment. If you have a specific DMCA request -- please do not hesitate to contact me via the contact button on top. I will do my very best to keep this site fully legal.

Get our toolbar!