Your One-Stop Source For
Music Lyrics
Bass and Guitar Tabs
and More...
Music Lyrics Bass and Guitar Tabs

 

The Tabs Are Below

Learn To Read Tab
Chords Handbook
Corrections & Additions
Get Official Tab
RBF tabs @ 911Tabs

 

S.R.

Reel Big Fish

 

 

main riff:

B E/F#

e||----7---7---7/9--9---||16x

B||----7---7---9/11-11--||

G||*-x-8---8-x-9/11-11-*||

D||*-x(9)-(9)x---------*||

A||--x(9)-(9)x----------||

E||---------------------||

 

then main riff w/o slide:

B E F#

e||----7---7---7---9---||4x

B||----7---7---9---11--||

G||*-x-8-x-8-x-9-x-11-*||

D||*-x(9)x(9)x---x----*||

A||--x(9)x(9)x---x-----||

E||--------------------||

 

then:

B F# E F# B F# E

e||-------------------||-----------------|

B||-----------------2x||-------------r-r-|

G||*-4-4-------------*||-4-4---------e-e-|

D||*-4-4-4-4-2-2-4-4-*||-4-4-4-4-2-2-s-s-|

A||--2-2-4-4-2-2-4-4--||-2-2-4-4-2-2-t-t-|

E||------2-2-0-0-2-2--||-----2-2-0-0-----|

 

then, main riff 8x

 

then, main riff 4x w/little muted guitar riff:

 

e||-------------------||

B||-----------------4x||

G||*-----------------*||

D||*-----------------*||

A||--9-9-6--66--------||

E||-------------77-7--||

(pm.............)

 

--------------------------------------------------------------------------------

S.R.

Reel Big Fish

 

chord chart

b e f#

e|--2-7--0-7--2-9---|

b|--4-7--0-9--2-11--|

g|--4-8--1-9--3-11--|

d|--4-9--2-9--4-11--|

a|--2-9--2-7--4-9---|

e|----7--0----2-----|

 

intro: b e f# x8

 

b e-> f#

what ever happened to suburban rhythm?

b e->f# b e->f#

why did ed and scott quit?

b e->f# b e->f#

please don't go suburban rhythm

b e-> f# b e->f#

all the other bands are just shit

 

prechorus: b e f# x3

b e->f#

 

chorus: b f# e f# x2

b f# e

 

b e-> f#

what ever happened to suburban rhythm?

b e->f# b e->f#

why did ed and scott quit?

b e->f# b e->f#

please don't go suburban rhythm

b e-> f# b e->f#

all the other bands are just shit

 

 

 

Return to my to my RBF tabs page

The Tablature is Copyright its respective owners.

Sign Up For My Newsletter
Subscribe | Unsubscribe

Site Map | Disclaimer | Privacy Policy | Media Kit | Submissions/Corrections

Website © 2000-2014 mattsmusicpage.com. All rights reserved.

Legal & DMCA: Matt's Music Page has been providing lyrics and tabs in a legal way, paying royalties each year to a few organizations. Then, all lyrics and tabs were removed from the site. Now, there's a new owner to the site, which purchased it August 26, 2014, and he is in negotiation to obtain licensing from BMI at the moment. If you have a specific DMCA request -- please do not hesitate to contact me via the contact button on top. I will do my very best to keep this site fully legal.

Get our toolbar!