Your One-Stop Source For
Music Lyrics
Bass and Guitar Tabs
and More...
Music Lyrics Bass and Guitar Tabs

 

The Tabs Are Below

Learn To Read Tab
Chords Handbook
Corrections & Additions
Get Official Tab
RBF tabs @ 911Tabs

Band: Reel Big Fish

Song: She's Famous Now

By:Captain Safety contact me at didyouever@hotmail with any corrections or comments. i spent hours

looking for this tab on the net and couldn't find one so here is one now i hope it's ok. Have fun kids.

 

Intro

e|---------------------------------------------------------------------|

B|---------------------------------------------------------------------|

G|2222222-2224442-77-9-----play twice----------------------------------|

D|0004440-0000000-55-7-------------------------------------------------|

A|---------------------------------------------------------------------|

E|---------------------------------------------------------------------|

 

pre verse ska chords

e|-5--5--5--5--5--5--5--5--7--5--5--5--3--3--5--5----------------------------|

B|-7--7--5--5--7--7--5--5--7--7--5--5--3--3--5--5----------------------------|

G|-7--7--6--6--7--7--6--6--7--7--6--6--4--4--6--6--play twice----------------|

D|-7--7--7--7--7--7--7--7--7--7--7--7--5--5--7--7----------------------------|

A|-5--5--7--7--5--5--7--7--5--5--7--7--5--5--7--7----------------------------|

E|-------5--5--------5--5--------5--5--3--3--5--5----------------------------|

D A D A D A G A

 

verse flick on distortion fo powerchords

e|-5--5--5--3---------------------------------------------------------------|

B|-7--5--7--3---------------------------------------------------------------|

G|-7--6--7--4-strum these--7-------------play twice-------------------------|

D|-7--7--7--5--------------7--7--5--7---listen to cd for rhthym-------------|

A|-5--7--5--5--------------5--7--5--7---------------------------------------|

E|----5-----3------------------5--3--5--------------------------------------|

 

play with ska rhthym flick on distortion for power chords

e|-5-5-5-5-5-5-3-3---------------------------------------------------------|

B|-7-7-5-5-7-7-3-3---------------------------------------------------------|

G|-7-7-6-6-7-7-4-4---x2--7-------------------------------------------------|

D|-7-7-7-7-7-7-5-5-------7-7-5-7-------------------------------------------|

A|-5-5-7-7-5-5-5-5-------5-7-5-7--55----5----------------------------------|

E|-----5-5-----3-3---------5-3-5------78---3-------------------------------|

 

pre chorus flick on distortion

e|-2----3-----5-----2----3--------------------------------------------------|

B|-2----3-----5-----3----3--------------------------------------------------|

G|-4-x4-4--x4-6-x8--4-x4-4-x4-----------------------------------------------|

D|-4----5-----7-----4----5-----7-7---------5-5------------------------------|

A|-2----5-----7-----2----5-----7-7--1010---5-5------------------------------|

E|------3-----5----------3-----5-5--8 8---3-3------------------------------|

 

Chorus: the guitar plays a sort of tune thing so ive tabbed that

e|-----------------------------------------------------------------------------|

B|-----------------------------------------------------------------------------|

G|-77777-----------------------------------------------------------------------|

D|-77777-44444-55555-77777-repeat----------5555-7-xxx---------575---5555-7-----

A|-55555-44444-55555-77777---------5-7-5---5555-7-xxx-55--5------75-5555-7--7-7|

E|-------22222-33333-55555--------5------7-3333-5-xxx---78--3-------3333-5-5---|

play the pre verse again

then the verse

then the pre chorus

then the chorus

then the intro

then there's a guitar solo

|-5-7-5--------------------------5--------------------------------5-------------------------|

B|--------875-------------------3------------------------------------7-----------------------|

G|--------------------------------------797---------------------------7-4--------------------|

D|-----------------------------------79----9----------------77-9-7-------7-------------------|

A|---------------53235--75457-----------------53235---75457-77-9-7---------------53235--75457|

E|-------------3--------5-------------------3-------5------55-7-5--------------3-------5----|

then there's this to end

|--------------------------------------------------------------------------|

B|--------------------------------------------------------------------------|

G|-7-----------------------7------------------------------------------------|

D|-7-x5-4-----5-----7------7-----4-----5----75454--5----7-xxxx-5----7-xxxx--|

A|-5----4-x5--5-x5--7--x5--5-x5--4--x5-5-x5------7-5-x4-7-xxxx-5-x4-7-xxxx--|

E|------2-----3-----5------------2-----3-----------3----5-xxxx-3-----5-xxxx-|

 

e/------------------------------------------------------------------------------/

B/------------------------------------------------------------------------------/

G/-----------------------------------------------2222222-2224442-2222222--7---2-/

D/-5----7-xxxx------------------------5----7-----0004440 0000000-0004440--5---0-/

A/-5-x4-7-xxxx--55---5--5-7-5------5-x5-7---5-7---------------------------------/

E/-3-----5-xxxx-----78-3--------7-5-3-----5-5-----------------------------------/

 

 

Return to my to my RBF tabs page

The Tablature is Copyright its respective owners.

Sign Up For My Newsletter
Subscribe | Unsubscribe

Site Map | Disclaimer | Privacy Policy | Media Kit | Submissions/Corrections

Website © 2000-2014 mattsmusicpage.com. All rights reserved.

Legal & DMCA: Matt's Music Page has been providing lyrics and tabs in a legal way, paying royalties each year to a few organizations. Then, all lyrics and tabs were removed from the site. Now, there's a new owner to the site, which purchased it August 26, 2014, and he is in negotiation to obtain licensing from BMI at the moment. If you have a specific DMCA request -- please do not hesitate to contact me via the contact button on top. I will do my very best to keep this site fully legal.

Get our toolbar!