Your One-Stop Source For
Music Lyrics
Bass and Guitar Tabs
and More...
Music Lyrics Bass and Guitar Tabs

 

The Tabs Are Below

Learn To Read Tab
Chords Handbook
Corrections & Additions
Get Official Tab
RBF tabs @ 911Tabs

 

Say "Ten"

Reel Big Fish

 

 

 

riff 1, after horn intro:(clean)

A B D A 6x

e||-----5-5--x--5-|----7-7--x--7-|----5-5--x--5-|----5-5--x--5--||

B||--r--5-5--x--5-|-r--7-7--x--7-|-r--7-7--x--7-|-r--5-5--x--5--||

G||*-e--6-6--x--6-|-e--8-8--x--8-|-e--7-7--x--7-|-e--6-6--x--6-*||

D||*-s--7-7--x--7-|-s--9-9--x--9-|-s--7-7--x--7-|-s--7-7--x--7-*||

A||--t--7-7-----7-|-t--9-9-----9-|-t--5-5-----5-|-t--7-7-----7--||

E||---------------|--------------|--------------|---------------||

 

riff 2:(distorted) _1,2,3______4______________

E F# | | G G#

e||-----------------|-------4x||---------------|

B||---------------r-|---r-----||-r-------------|

G||*--------------e-|---e----*||-e-------------|

D||*---*-*-*-4-4--s-|---s----*||-s-------------|

A||--2-2-2-2-4-4--t-|---t-----||-t---5--6------|

E||--0-0-0-0-2-2----|---------||-----3--4------|

 

riff 1 6x

 

riff 2 4x, then:

 

(distorted)

A C D E A C D E

e|----------------------------|-------------------------------|

B|----------------------------|-------------------------------|

G|-----2------5------7------9-|-----2------5--7-7-7-7-7-9-9-9-|

D|-2-2-2--5-5-5--7-7-7--9-9-9-|-2-2-2--5-5-5--7-7-7-7-7-9-9-9-|

A|-0-0-0--3-3-3--5-5-5--7-7-7-|-0-0-0--3-3-3--5-5-5-5-5-7-7-7-|

E|-*-*----*-*----*-*----*-*---|-*-*----*-*--------------------|

A C D E

e||-----------------------||4x

B||-----------------------||

G||*-2222-5555-7777-9999-*||

D||*-2222-5555-7777-9999-*||

A||--0000-3333-5555-7777--||

E||-----------------------||

B A# B A#

e||---------------3x||---------------|

B||-----------------||-------------r-|

G||*---------------*||-------------e-|

D||*-9-9--9-8-8--8-*||-9-9--9-8-8--s-|

A||-----------------||-------------t-|

E||--7-7--7-6-6--6--||-7-7--7-6-6----|

 

double-time(clean)

A B D A 4x

e|-5-5-x-5-x-5-x-5-|-7-7-x-7-x-7-x-7-|-5-5-x-5-x-5-x-5-|-5-5-x-5-x-5-x-5-|

B|-5-5-x-5-x-5-x-5-|-7-7-x-7-x-7-x-7-|-7-7-x-7-x-7-x-7-|-5-5-x-5-x-5-x-5-|

G|-6-6-x-6-x-6-x-6-|-8-8-x-8-x-8-x-8-|-7-7-x-7-x-7-x-7-|-6-6-x-6-x-6-x-6-|

D|-7-7-x-7-x-7-x-7-|-9-9-x-9-x-9-x-9-|-7-7-x-7-x-7-x-7-|-7-7-x-7-x-7-x-7-|

A|-----------------|-----------------|-----------------|-----------------|

E|-----------------|-----------------|-----------------|-----------------|

 

riff 2 1x

 

 

Return to my to my RBF tabs page

The Tablature is Copyright its respective owners.

Sign Up For My Newsletter
Subscribe | Unsubscribe

Site Map | Disclaimer | Privacy Policy | Media Kit | Submissions/Corrections

Website © 2000-2014 mattsmusicpage.com. All rights reserved.

Legal & DMCA: Matt's Music Page has been providing lyrics and tabs in a legal way, paying royalties each year to a few organizations. Then, all lyrics and tabs were removed from the site. Now, there's a new owner to the site, which purchased it August 26, 2014, and he is in negotiation to obtain licensing from BMI at the moment. If you have a specific DMCA request -- please do not hesitate to contact me via the contact button on top. I will do my very best to keep this site fully legal.

Get our toolbar!

 

Starbucks You Are Here Coffee Mug/Cup KENTUCKY - Horses, Banjo, Blue, White
$19.99
Starbucks You Are Here Coffee Mug/Cup KENTUCKY - Horses, Banjo, Blue, White picture


KNOWLES ROCKWELL HERITAGE "THE BANJO PLAYER" FIRST EDITION 1989 PLATE COA
$5.99
KNOWLES ROCKWELL HERITAGE


Vintage Postcard 1981 Disney World Banjo Kings Main Street USA 1981 Postmark
$4.99
 Vintage Postcard 1981 Disney World Banjo Kings Main Street USA 1981 Postmark picture


Banjo Barometer With Thermometer Hygrometer 490mm
$84.76
Banjo Barometer With Thermometer Hygrometer 490mm picture


ANTIQUE JAPANESE NIPPON FIGURINE SET OF 3 WOMEN GEISHA PLAYING DRUM BANJO FAN
$24.0
ANTIQUE JAPANESE NIPPON FIGURINE SET OF 3 WOMEN GEISHA PLAYING DRUM BANJO FAN picture