Your One-Stop Source For
Music Lyrics
Bass and Guitar Tabs
and More...
Music Lyrics Bass and Guitar Tabs

 

The Tabs Are Below

Learn To Read Tab
Chords Handbook
Corrections & Additions
Get Official Tab
RBF tabs @ 911Tabs

Guitar 1

 

|--10----10----10----10----9----9----7---7--------------|

|-----10----10----10----10---10---10---8---8------------|

|-------------------------------------------------------|

|-------------------------------------------------------|

|-------------------------------------------------------|

 

Do that little riff twice before guitar 2 enters with:

 

|-------------------------------------------------------|

|--7-~~~~~~~~~~~~----999-----777------------------------|

|--7-~~~~~~~~~~~~----777-----555------------------------|

|--5-~~~~~~~~~~~~---------------------------------------|

|-------------------------------------------------------|

 

Play that 3x then

 

riff 1

|-------------------------------------------------------|

|-------------------------------------------------------|

|-------------------6-7-9-7-----------------------------|

|-7-7-7-7-7-7-7-7---4-5-7-5\----------------------------|

|-5-5-5-5-5-5-5-5---------------------------------------|

PM***************

 

Play Ska Upchords

 

A G D

she told me that I was lame

 

A G D

with her middle finger in my face

 

Bm Riff 1

wont waste her time with such a loser

 

D A G D

so now I wallow in regret

 

A G D

wanna do something right but I haven't yet

 

Bm Riff 1

why do my endeavors end up in failure

 

 

Play as Power Chords

 

G A D F# E D

I think I'll go out drinkin'

 

G A D F# E D

drinkin' all night long

 

G A

cuz if I go out drinkin'

 

D Bm

then I can stop thinkin'

 

G A Play Intro

bout how the world done me wrong

 

 

Ska Upstrokes

 

D A G D

I guess I shouldn't feel so bad

 

A G D

ain't got much reason to feel so sad

 

Bm Riff 1

'cept that I'm poor untalented and ugly

 

D A G D

I know its like they always say

 

A G D

good times and bad will come our way

 

Bm Riff 1

but theres only one thing that'll make this easier

 

 

Play as Power Chords

 

G A D F# E D

I think I'll go out drinkin'

 

G A D F# E D

drinkin' all night long

 

G A

cuz if I go out drinkin'

 

D Bm

then I can stop thinkin'

 

G A Bm

bout how the world done me wrong

 

 

Bridge Played w/ ska upstrokes Slowly

 

D

so wrong

 

G A D

I sing this song and nobody sings along

 

 

Play Faster

 

Bm

I've got a friend

 

D

he's in my hand

 

G

he understands

 

A

he said to me everything wont be so bad!

 

Beginning Solo Part

 

 

G A D

|-------------------------------------------------------|

|-------------------------------------------------------|

|-------------------------------------------------------|

|---------5h7----------7h9—4/555-4/555-4/555-4/555------|

|-3-3-5/7------5-5-7/9----------------------------------|

 

G A D Continue solo

|-------------------------------------------------------|

|------------------------------------Guitar 2 plays-----|

|--------------------------------------Rhythm-----------|

|---------5h7----------7h9—-----------------------------|

|-3-3-5/7------5-5-7/9----------------------------------|

 

 

G A D Bm

G A

 

Play Intro

 

Play as upstrokes

 

 

G A D

I think I'll go out drinkin'

 

G A D

drinkin' all night long

 

G A

cuz if I go out drinkin'

 

D Bm

then I can stop thinkin'

 

G A Play intro once

bout how the world done me wrong

 

Play as power chords

 

G A D F# E D

I think I'll go out drinkin'

 

G A D F# E D

drinkin' all night long

 

G A

cuz if I go out drinkin'

 

D Bm

then I can stop thinkin'

 

G A

bout how the world done me

 

G A

bout how the world done me

 

G A Play Intro

bout how the world done me wrong

 

End on D and yer done. This is my first tab so bare with me.

 

 

Return to my to my RBF tabs page

The Tablature is Copyright its respective owners.

Sign Up For My Newsletter
Subscribe | Unsubscribe

Site Map | Disclaimer | Privacy Policy | Media Kit | Submissions/Corrections

Website © 2000-2014 mattsmusicpage.com. All rights reserved.

Legal & DMCA: Matt's Music Page has been providing lyrics and tabs in a legal way, paying royalties each year to a few organizations. Then, all lyrics and tabs were removed from the site. Now, there's a new owner to the site, which purchased it August 26, 2014, and he is in negotiation to obtain licensing from BMI at the moment. If you have a specific DMCA request -- please do not hesitate to contact me via the contact button on top. I will do my very best to keep this site fully legal.

Get our toolbar!