Your One-Stop Source For
Music Lyrics
Bass and Guitar Tabs
and More...
Music Lyrics Bass and Guitar Tabs

 

The Tabs Are Below

Learn To Read Tab
Chords Handbook
Corrections & Additions
Get Official Tab
RBF tabs @ 911Tabs

 

Nothin'

by Reel Big Fish

tabbed by Nugget 82

 

verse

-------------------------------------------------------------

--------------------------------------------------------------

-------------------------------------------9---10-----------

10-10-10-10-10-10-10-10-10---9---10---7---5--

10-10-10-10-10-10-10-10-10---7----8---7---5---

--8--8---8--8---8---8---8--8---8--------------5---3---

 

chorus

play this first part a then play this part

couple of times

------------------------------- -----------------------------------------------

------------------------------- -----------------------------------------------

-----------5------------------ -----------------------------------------------

-7---7---5---3---5--------- -----------------------------------------------

-7---7---3---3---5--------- --3-3-3-3-3-3-3-3-5-5-5-5-5-5-5-5-

-5---5--------1---3------- ---1-1-1-1-1-1-1-1-3-3-3-3-3-3-3-3-

 

solo basically just play this part twice

----------------------------------------------------------------------

-----------------------------------------------------------------------

-3-3-2-3-5-3-2~--------------------------------------------------

-----------------------/7-5~--5~--3-3-2-3-5-3-2---------------

----------------------------------------------------------/5-3~-3~-

------------------------------------------------------------------------

 

Outro Ska Part

are just these chords after a while just speed it up

NOTE = these are just the chords in the order you play them,

you'll have to find the rythem yourself

-------1----------3----

-3----1----3----3----

-3----2----3----4----

-3----3----3----5----

------------------------

------------------------

 

Send any comments, questions, requests to Nugget 82

 

 

 

Return to my to my RBF tabs page

The Tablature is Copyright its respective owners.

Sign Up For My Newsletter
Subscribe | Unsubscribe

Site Map | Disclaimer | Privacy Policy | Media Kit | Submissions/Corrections

Website © 2000-2014 mattsmusicpage.com. All rights reserved.

Legal & DMCA: Matt's Music Page has been providing lyrics and tabs in a legal way, paying royalties each year to a few organizations. Then, all lyrics and tabs were removed from the site. Now, there's a new owner to the site, which purchased it August 26, 2014, and he is in negotiation to obtain licensing from BMI at the moment. If you have a specific DMCA request -- please do not hesitate to contact me via the contact button on top. I will do my very best to keep this site fully legal.

Get our toolbar!