Your One-Stop Source For
Music Lyrics
Bass and Guitar Tabs
and More...
Music Lyrics Bass and Guitar Tabs

 

The Tabs Are Below

Learn To Read Tab
Chords Handbook
Corrections & Additions
Get Official Tab
RBF tabs @ 911Tabs

Artist: Reel Big Fish

Song: Kiss Me Deadly

Tabbed By: Dan (Lamar148@aol.com)

 

Hey, me again doin another RBF cover. This is another cool one

too. So again, if you haven't heard it, download it. Here's my best

shot. If you have questions, comments, etc. email me at

Lamar148@aol.com

 

Intro:

E----------------6--------------------------------

B--8~------------8--------------------------------

G--8~------------8--------------------------------

D--8~(upstroke)--8--(then aaron and scott talk)---

A--6~------------6--------------------------------

E-------------------------------------------------

 

Verse:(clean quick upstrokes)

E--6-------4--------------------------------

B--8-------4--------------------------------

G--8-(x8)--5-(x8)---------------------------

D--8-------6--------------------------------

A--6-------6--------------------------------

E----------4--------------------------------

 

Transition:(clean)

E-6--4--6--6--------------------------------

B-8--4--6--8--------------------------------

G-8--5--7--8--------------------------------

D-8--6--8--8--------------------------------

A-6--6--8--6--------------------------------

E----4--6-----------------------------------

 

Verse2:(clean) "But I know what I like..."

E--6------4---------------------------------

B--8------4---------------------------------

G--8-(x6)-5-(x6)----------------------------

D--8------6---------------------------------

A--6------6---------------------------------

E---------4---------------------------------

 

Chorus:(distorted) "Kiss me once..."

E-------------------------------------------

B-------------------------------------------

G-----8--8--------8--------8----------------

D---8----8--6--8--8--6--8--8--5--6--8-------

A-6------6--6--8--6--6--8--6--5--6--8-------

E-----------4--6-----4--6-----3--4--6-------

 

Bridge:same as verse until:

E--4~---6~----------------------------------

B--4~---6~----------------------------------

G--5~---7~----------------------------------

D--6~---8~----------------------------------

A--6~---8~----------------------------------

E--4~---6~----------------------------------

 

Outro:same as verse until:

E--6/11------------------------6------------=

B--6/11------------------------8------------

G--7/12------------------------8------------

D--8/13------------------------8------------

A--8/13------------------------6------------

E--6/11-------------------------------------

 

Well, thats it...i think, I'm almost positive that's how it goes, the

bridge sounds like harmonizing notes, but the chords work too. Again,

if you have any questions or comments email me at Lamar148@aol.com,

Thanks

 

 

Return to my to my RBF tabs page

The Tablature is Copyright its respective owners.

Sign Up For My Newsletter
Subscribe | Unsubscribe

Site Map | Disclaimer | Privacy Policy | Media Kit | Submissions/Corrections

Website © 2000-2014 mattsmusicpage.com. All rights reserved.

Legal & DMCA: Matt's Music Page has been providing lyrics and tabs in a legal way, paying royalties each year to a few organizations. Then, all lyrics and tabs were removed from the site. Now, there's a new owner to the site, which purchased it August 26, 2014, and he is in negotiation to obtain licensing from BMI at the moment. If you have a specific DMCA request -- please do not hesitate to contact me via the contact button on top. I will do my very best to keep this site fully legal.

Get our toolbar!

 

BRAND NEW KEY OF C HOHNER MINI HARMONICA HARP KEYRING KEYCHAIN KEY RING CHAIN
$8.21
BRAND NEW KEY OF C HOHNER MINI HARMONICA HARP KEYRING KEYCHAIN KEY RING CHAIN picture


RISING SONS BAND *2X3 FRIDGE MAGNET* VOCALS GUITAR MANDOLIN DOBRO HARMONICA SONG
$3.99
RISING SONS BAND *2X3 FRIDGE MAGNET* VOCALS GUITAR MANDOLIN DOBRO HARMONICA SONG picture


Vtg Christmas Angel Baby Girl W Harmonica Boy W Book SET OF 2 W GOLD WINGS
$125.0
Vtg Christmas Angel Baby Girl W Harmonica Boy W Book SET OF 2 W GOLD WINGS  picture


Beautiful Hand Carved Jewelry Trinket Jewelry Box Harmonica Case Bone And Brass
$14.5
Beautiful Hand Carved Jewelry Trinket Jewelry Box Harmonica Case Bone And Brass picture


BRAND NEW* HOHNER BOB DYLAN SIGNATURE LIMITED EDITION HARMONICA COLLECTORS ITEM
$140.19
BRAND NEW* HOHNER BOB DYLAN SIGNATURE LIMITED EDITION HARMONICA COLLECTORS ITEM picture