Your One-Stop Source For
Music Lyrics
Bass and Guitar Tabs
and More...
Music Lyrics Bass and Guitar Tabs

 

The Tabs Are Below

Learn To Read Tab
Chords Handbook
Corrections & Additions
Get Official Tab
RBF tabs @ 911Tabs

 

Join the Club

Reel Big Fish

 

 

 

a little cheese warm-up:

A C#m A

e|----------------|-----|-----|

B|-------------5--|-----|-----|

G|-----6----------|-6---|--?--|

D|-------7---6----|-7---|--?--|

A|-7-7-----4------|-7---|-----|

E|-5--------------|-5---|-----|

 

intro:

A C#m D E A C#m D E

e|------------------|------------------|------------------|----------0---|

B|-------------5----|-----7----9h10-9--|-------------5----|-----7----0---|

G|-----6--------(6)-|------(7)-9-----9-|-----6--------(6)-|------(7)-1---|

D|------(7)--6------|---7------9-------|------(7)--6------|---7------2---|

A|---7-----4--------|-5--------7-------|---7-----4--------|-5--------2---|

E|-5----------------|------------------|-5----------------|----------0---|

 

_1,3________________2,4_____________

A C#m | D E || D E ||

e||------------------|------------------||----------0---||

B||-------------5----|-----7-------9----||-----7----0---||

G||*----6--------(6)-|------(7)-----(9)*||------(7)-1(9)||

D||*-----(7)--6------|---7-------9-----*||---7------2(9)||

A||---7-----4--------|-5-------7--------||-5--------2(7)||

E||-5----------------|------------------||----------0(0)||

 

horns

e|------|------|---------|----------|---------------|---------|

B|------|------|---------|----------|---------------|---------|

G|-drum-|------|---------|--(bass)--|---pm****-****-|---------|

D|-fill-|------|---------|----------|-----7777-7777-|---------|

A|------|------|---------|----------|---------------|---------|

E|------|------|----/7-5-|----(5)(5)|---------------|---------|

A7 D

e|----5-5----5-5-|----5-5----5-5-|

B|-r--5-5-r--5-5-|-r--7-7-r--7-7-|

G|-e--6-6-e--6-6-|-e--7-7-e--7-7-|

D|-s--5-5-s--5-5-|-s--7-7-s--7-7-|

A|-t--7-7-t--7-7-|-t--5-5-t--5-5-|

E|----5-5----5-5-|---------------|

 

riff 1:

A7 D

e||-----5-5----7-5-|----5-5----5-5--||6 1/2 times

B||--r--5-5-r--5-5-|-r--7-7-r--7-7--||

G||*-e--6-6-e--6-6-|-e--7-7-e--7-7-*||

D||*-s--5-5-s--5-5-|-s--7-7-s--7-7-*||

A||--t--7-7-t--7(7)|-t--5-5-t--5-5--||

E||-----5-5----5(5)|----------------||

 

riff 2(double-time feel):

A C#m D E

e||--5-----4----5-|-5--5----7--7--||6x

B||--5--xx-5--x-7-|-7--7-xx-9--9--||

G||*-6--xx-6--x-7-|-7--7-xx-9--9-*|| rhythm might be wrong

D||*-7-----6--x-7-|-7--7----9--9-*||

A||-------(4)--(5)|(5)(5)--(7)(7)-||

E||---------------|---------------||

 

verse:

A C#m D E

e||--x-5-x-5-x-4-x-4-|-x-5-x-5-x-7-x-7--||4x

B||--x-5-x-5-x-5-x-5-|-x-7-x-7-x-9-x-9--||

G||*-----------------|-----------------*||

D||*-----------------|-----------------*||

A||------------------|------------------||

E||------------------|------------------||

 

riff 3(distortion):

A C#m D E

e||--------------|-------------||3x

B||--------------|-------------||

G||*-------6--6--|-7--7--9--9-*||

D||*-7--7--6--6--|-7--7--9--9-*||

A||--7--7--4--4--|-5--5--7--7--||

E||--5--5--------|-------------||

 

play riff 2 5x(first time with variation)

 

verse

 

riff 3 4x

 

B C#m D E B C#m D E

e||--------------|-------------||------|------|------|------|------|

B||--------------|-------------||------|------|------|------|------|

G||*-4--4--6--6--|-7--7--9--9-*||-4----|-6----|-7----|------|------|

D||*-4--4--6--6--|-7--7--9--9-*||-4----|-6----|-7----|-2----|-(2)--|

A||--2--2--4--4--|-5--5--7--7--||-2----|-4----|-5----|-2----|-(2)--|

E||--------------|-------------||------|------|------|-0----|-(0)--|

 

riff 1 4x (back to slow feel)

 

during sax solo:

A7 D 4x A7 D 4x

e||-----5-----5--|----5-----5--||-----5-5----5--|----5-5----5--||

B||--r--5--r--5--|-r--7--r--7--||--r--5-5-r--5--|-r--7-7-r--7--||

G||*-e--6--e--6--|-e--7--e--7-*||*-e--6-6-e--6--|-e--7-7-e--7-*||

D||*-s-(5)-s-(5)-|-s-(7)-s-(7)*||*-s------s-----|-s------s----*||

A||--t-(7)-t-(7)-|-t-(5)-t-(5)-||--t------t-----|-t------t-----||

E||----(5)---(5)-|-------------||---------------|--------------||

 

riff 1(2 1/2x),then

 

e||-------------------------------||

B||-------------------------------||

G||*-----------------------------*||all palm muted, rhythm might

D||*-7-7---------------------5-5-*|| be wrong

A||------0-4--7-5--5-5---7-7------||

E||-------------------------------||

 

lead guitar thingy:(not in time,broken up into phrases)

not sure from here on.

e|---------|-------------------------------------||-12h15p12------||

B|---------|-------------------------------------||----------15---||

G|---------|-12-14-14-12-14-14-12-14-14-12-14-14-||*-------------*||

D|-7~~~~---|-------------------------------------||*--repeat-----*||

A|---------|-------------------------------------||---several-----||

E|---------|-------------------------------------||---times-------||

 

e|-----------------|

B|-15~~~~~~~~~~~~--|

G|-----------------|

D|-----------------|

A|-----------------|

E|-----------------|

 

riff 3(4x)

 

--------------------------------------------------------------------------------

Join The Club

Reel Big Fish

 

chord chart

a a7 dbm d e b

e|--5--5--6--5--7--7--5--|

b|--5--5--5--7--9--7--7--|

g|--6--6--6--7--9--8--7--|

d|--7--5--6--7--9--9--7--|

a|--7--7--4--5--7--9--5--|

e|--5--5-----------7-----|

 

e1

e|------------|

b|------------|

g|--9-10-9----|

d|--9------9--|

a|--9---------|

e|------------|

 

a71

e|--5--5--7--pull off to 5--|

b|--5--5--5-----------------|

g|--6--6--6-----------------|

d|--5--5--5-----------------|

a|--7--7--------------------|

e|--5--5--------------------|

 

intro: a dbm a

a dbm d e1

a dbm d e

 

a dbm d e

was gonna call my friends and get 'em all together

a dbm d e

i was gonna go and start a band

a dbm d e

but everything i wanna do has already been done

a dbm d e

why would i wanna go and do it again?

 

intro 2: a7 d

a71 d x7

a dbm d e x 6

 

a dbm d e

was gonna call my friends and get 'em all together

a dbm d e

i was gonna go and start a band

a dbm d e

but everything i wanna do has already been done

a dbm d e

why would i wanna go and do it again?

a dbm d e

everybody

a dbm d e

everybody

a dbm d e

everybody

a dbm d e

plays guitar

 

[a dbm d e x4]

 

a dbm d e

she's so cute (if you know what i mean)

a dbm d e

she's the cutest little girl that i've ever seen

a dbm d e

maybe she'll like me if i play guitar

a dbm d e

maybe she'll like me if i'm the lead singer

a dbm d a

yea

a dbm d a

oh yea

a dbm

there's so many bands

d e a dbm d e

and we all look the same

b dbm d e

i just saw them up on stage

b dbm d e

and i don't remember how good they played

b dbm d e

he can't sing but i'd pay just to see her face

 

yea yea yea yea

 

[a71 d x4]

 

[a7 d x4 single downstrokes]

 

[a7 d x4 down/up/down strokes]

 

a dbm

everybody's in a band

d e

yea yea yea

a dbm

have you heard of my band

d e

oh ooh ooh

a dbm d e

we try to be different but i guess that's nothing new

 

 

Return to my to my RBF tabs page

The Tablature is Copyright its respective owners.

Sign Up For My Newsletter
Subscribe | Unsubscribe

Site Map | Disclaimer | Privacy Policy | Media Kit | Submissions/Corrections

Website © 2000-2014 mattsmusicpage.com. All rights reserved.

Legal & DMCA: Matt's Music Page has been providing lyrics and tabs in a legal way, paying royalties each year to a few organizations. Then, all lyrics and tabs were removed from the site. Now, there's a new owner to the site, which purchased it August 26, 2014, and he is in negotiation to obtain licensing from BMI at the moment. If you have a specific DMCA request -- please do not hesitate to contact me via the contact button on top. I will do my very best to keep this site fully legal.

Get our toolbar!

 

Hard Rock Pin Las Vegas 4th of july red white and blue guitar
$5.0
Hard Rock Pin Las Vegas 4th of july red white and blue guitar picture


Hard Rock Pin Hollywood Fl Bell Girl with dice luggage and guitar
$5.0
Hard Rock Pin Hollywood Fl Bell Girl with dice luggage and guitar picture


Hard Rock Pin Las Vegas King of Clubs Guitar rare only 3 lines of info on back
$5.0
Hard Rock Pin Las Vegas King of Clubs Guitar rare only 3 lines of info on back picture


Hard Rock Pin Edmonton guitar pin
$5.0
Hard Rock Pin Edmonton guitar pin picture


Lladro Guitar Boy #4614 - Beautiful Piece of Lladro
$109.0
Lladro Guitar Boy #4614 - Beautiful Piece of Lladro picture