Your One-Stop Source For
Music Lyrics
Bass and Guitar Tabs
and More...
>Music Lyrics Bass and Guitar Tabs

 

The Tabs Are Below

Learn To Read Tab
Chords Handbook
Corrections & Additions
Get Official Tab
RBF tabs @ 911Tabs

HATE YOU - Reel Big Fish

-------------------------------------------------------------------------------

 

Tabbed by Nate Nepsky (the coolest guy in the world)

theamazingzoob@yahoo.com

 

An amazing kick ass song by the greatest band in the world, Reel Big Fish.

This is my first tab, so go easy on me. I didn't write down the exact rhythm,

but if you listen to the song a few times, you can get it.

If you have any questions or comments, e-mail me at the address above. Enjoy!

 

riff 1

e---------------------------------------------------------------------------

B---------------------------------------------------------------------------

G---------------------------------------------------------------------------

D-----7-7----------------------7-7------------------------------------------

A-----5-5---7-7---5--5---7-7---5-5---7-7---x-x-x-x--------------------------

E-----------5-5---3--3----5-5--------5-5---x-x-x-x--------------------------

(for everyting else, take out the muted

clicks and just repeat the first 4 chords)

 

riff 2

e---5---3---5---------------------------------------------------------------

B---7---3---5---------------------------------------------------------------

G---7---4---6---------------------------------------------------------------

D---------------------------------------------------------------------------

A---------------------------------------------------------------------------

E---------------------------------------------------------------------------

 

pre chorus

e---------------------------------------------------------------------------

B---------------------------------------------------------------------------

G---------------------------------------------------------------------------

D-----7---------------------------------------------------------------------

A-----5----5---7------------------------------------------------------------

E----------3---5------------------------------------------------------------

 

chorus

e---------------------------------------------------------------------------

B---------------------------------------------------------------------------

G---------------------------------------------------------------------------

D-----7-7-x--x--x--x--------------------------------------------------------

A----5-5-x--x--x--x----7-7--------------------------------------------------

E----------------------5-5--------------------------------------------------

 

Whay cant.... (riff 3)

e---------------------------------------------------------------------------

B---------------------------------------------------------------------------

G---------------------------------------------------------------------------

D----7----------------------------------------------------------------------

A----5----7-----------------------------------------------------------------

E---------5-----------------------------------------------------------------

 

little riff after horn part (riff 4)

e------------------------------------------------------------------------3--

B------------------------------------------------------------------------3--

G------------------------------------------------------------------------4--

D---7777---55--33-55--------------------------------------------------------

A-----------------------------------------------last time end on------------

E---------------------------------------------------------------------------

 

break

e----3----------------------------------------------------------------------

B----3----------------------------------------------------------------------

G----4----------------------------------------------------------------------

D---------------------------------------------------------------------------

A---------------------------------------------------------------------------

E---------------------------------------------------------------------------

 

Order of song:

riff 1 x9

riff 2 x4

riff 1 x4

riff 2 x4

pre chorus

chours

riff 3

riff 4

riff 1 x9

riff 2 x4

riff 1 x4

riff 2 x4

pre chorus

chours

riff 3

break

riff 2 (slowly)

riff 1 (slowly)

riff 2 x2

riff 1 x9

riff 2 x4

riff 1 x4

riff 2 x4

pre chorus

chours x2

riff 3

riff 4

Whew!

 

 

Return to my to my RBF tabs page

The Tablature is Copyright its respective owners.

Sign Up For My Newsletter
Subscribe | Unsubscribe

Site Map | Disclaimer | Privacy Policy | Media Kit | Submissions/Corrections

Website © 2000-2014 mattsmusicpage.com. All rights reserved.

Legal & DMCA: Matt's Music Page has been providing lyrics and tabs in a legal way, paying royalties each year to a few organizations. Then, all lyrics and tabs were removed from the site. Now, there's a new owner to the site, which purchased it August 26, 2014, and he is in negotiation to obtain licensing from BMI at the moment. If you have a specific DMCA request -- please do not hesitate to contact me via the contact button on top. I will do my very best to keep this site fully legal.

Get our toolbar!

 

Goebel Children of De Grazia "INDIAN BOY WITH DRUM" 7308 Figurine Signed
$59.99
Goebel Children of De Grazia


CLETRAC GENERAL BRAKE DRUM #112256
$19.95
CLETRAC GENERAL BRAKE DRUM #112256 picture


RABBITT BEATING A DRUM, CHILDS HANKIE, 9" BY 9"
$5.0
RABBITT BEATING A DRUM, CHILDS HANKIE,  9


Vintage Ceiling Light Globe Drum Shade White w/Clear Textured Glass Kitchen MCM
$14.99
Vintage Ceiling Light Globe Drum Shade White w/Clear Textured Glass Kitchen MCM picture


Ronnie "I'll Play My Drum For You"~Cherished Teddies #912905 ~ 6CC1/871
$5.0
Ronnie