Your One-Stop Source For
Music Lyrics
Bass and Guitar Tabs
and More...
>Music Lyrics Bass and Guitar Tabs

 

The Tabs Are Below

Learn To Read Tab
Chords Handbook
Corrections & Additions
Get Official Tab
RBF tabs @ 911Tabs

Cheer Up - Reel Big Fish

-------------------------------------------------------------------------------

 

By:PezLTJman@yahoo.com

Riff#2---played also after chorus

Intro Riff #1 |------------------------|

e|---------------------------------------------------------------------------|

B|------------7p6-7p6h7p6h7p6------------------------------------------------|

G|----4/8\6-------------------------4/8\666644443333-3/4\3\1-----------------|

D|---------------------------------------------------------------------------|

A|---------------------------------------------------------------------------|

E|---------------------------------------------------------------------------|

Verse/Chorus

e|---------------------------------------------------------------------------|

B|---------------------------------------------------------------------------|

G|---6-x-x-x-x-4-4-----------------------------------------------------------|

D|---6-x-x-x-x-4-4-4-4-------------------------------------------------------|

A|---4-x-x-x-x-2-2-4-4-------------------------------------------------------|

E|-----------------2-2-------------------------------------------------------|

 

Pre-Chorus "You're not the only one....not havin any fun!"

e|---------------------------------------------------------------------------|

B|---------------------------------------------------------------------------|

G|----------------------------------------4----------------------------------|

D|--------------6-------------------------4----------------------------------|

A|--------------6-------------------------2----------------------------------|

E|--------------4------------------------------------------------------------|

"Its not gonna be alright..."

e|---------------------------------------------------------------------------|

B|---6~~~~7~~~~6~~~~7~~~~~----9----------------------------------------------|

G|---------------------------------------------------------------------------|

D|---------------------------------------------------------------------------|

A|---------------------------------------------------------------------------|

E|---------------------------------------------------------------------------|

 

Return to my to my RBF tabs page

The Tablature is Copyright its respective owners.

Sign Up For My Newsletter
Subscribe | Unsubscribe

Site Map | Disclaimer | Privacy Policy | Media Kit | Submissions/Corrections

Website © 2000-2014 mattsmusicpage.com. All rights reserved.

Legal & DMCA: Matt's Music Page has been providing lyrics and tabs in a legal way, paying royalties each year to a few organizations. Then, all lyrics and tabs were removed from the site. Now, there's a new owner to the site, which purchased it August 26, 2014, and he is in negotiation to obtain licensing from BMI at the moment. If you have a specific DMCA request -- please do not hesitate to contact me via the contact button on top. I will do my very best to keep this site fully legal.

Get our toolbar!

 

Chiang-ming Cheng Autographed Program Tremolo Harmonica Concert Player
$6.99
Chiang-ming Cheng Autographed Program Tremolo Harmonica Concert Player picture


1994 Press Photo Joe Troyan in Bashfville Harmonica
$20.0
1994 Press Photo Joe Troyan in Bashfville Harmonica picture


1992 Press Photo Dave Flack Portland Harmonica King
$22.0
1992 Press Photo Dave Flack Portland Harmonica King picture


Civil War dug iron heel plate relics button harmonica knife battle artifacts
$9.99
Civil War dug iron heel plate relics button harmonica knife battle artifacts picture


Harmonica Chop Cup (Aluminum) by Leo Smetsers - Trick - Magic Tricks
$151.95
Harmonica Chop Cup (Aluminum) by Leo Smetsers - Trick - Magic Tricks picture