Your One-Stop Source For
Music Lyrics
Bass and Guitar Tabs
and More...
Music Lyrics Bass and Guitar Tabs

 

The Tabs Are Below

Learn To Read Tab
Chords Handbook
Corrections & Additions
Get Official Tab
RBF tabs @ 911Tabs

Song : Where have you been

Band : Reel Big Fish

this is my first submission...it should be right, at least it sounds right to me

 

Intro ( after guitar enters)

G-----------------------------------------------------

D-----------------------------------------------------

A-0-0-0-0----3-3-3-3-------------------2-3-5------

E--------------------------1-1-1-1----3-------------

 

G------------------------------------------------------

D------------------------------------------------------

A-0-0-0-0-----3-3-3-3----------------5-3-2-3-0-----

E---------------------------1-1-1-1-------------------

 

Verse(w/o guitar)

G------------------------------------------------------------------------------------

D------------------------------------------------------------------------------------

A-0-/-3----------3-2-0-0-/-3-----------3-2-/-12-\-3--0--2h3-3-2--0-0-/-3--3-/-7-8-7-5

E--------1-1-/-3---------------1-1-/-3-------------------3---------------------------

 

Chorus x3

G--------------------------------------------------

D--------------------------------------------------

A-3-2-0-------------------------------------------

E----------3-3-3-3----0-0-0-0----1-1-1-1-------

 

then

G--------------------------------------------------

D--------------------------------------------------

A-3-2-0-------------------------------------------

E----------3-3-3-3----1-1-1-1----1-1-1-1----------

 

Bridge 1

G------------------------------------------------------

D------------------------------------------------------

A-------------------3-2-0----2-3---------------2-3-5

E-5-\-3-\-1-/-3--5---------3-------1-1-1-1--3-------

 

Bridge 2

G-------------------------------------------

D-------------------------------------------

A-3-3-3-3----------------------------------

E----------3-3-3-3--0-0-0-0--1-1-1-1-----

 

Guitar Solo

G-------------------------------------------------------

D-------------------------------------------------------

A-3-2-0------------------------------------------------

E--------3-3-3-3----0-0-0-0----1-1-1-1--------------

 

G-------------------------------------------------------

D-------------------------------------------------------

A-3-2-0-5----------2-3----2-3-5-3-2-0-------------------

E-----------3----5--------------------------------------

 

Intro x2

Verse x2

Chorus

Intro x2

Verse x2

Chorus

Bridge 1 x2

Bridge 2 x2

Guitar solo

verse(no bass)

Chorus x8

 

 

Return to my to my RBF bass tabs page

The Tablature is Copyright its respective owners.

Sign Up For My Newsletter
Subscribe | Unsubscribe

Site Map | Disclaimer | Privacy Policy | Media Kit | Submissions/Corrections

Website © 2000-2014 mattsmusicpage.com. All rights reserved.

Legal & DMCA: Matt's Music Page has been providing lyrics and tabs in a legal way, paying royalties each year to a few organizations. Then, all lyrics and tabs were removed from the site. Now, there's a new owner to the site, which purchased it August 26, 2014, and he is in negotiation to obtain licensing from BMI at the moment. If you have a specific DMCA request -- please do not hesitate to contact me via the contact button on top. I will do my very best to keep this site fully legal.

Get our toolbar!

 

1983 SEALED LP Return of the Jedi + 1977 Star Wars Vinyl 2 Record Set - Sci-Fi
$22.5
1983 SEALED LP Return of the Jedi + 1977 Star Wars Vinyl 2 Record Set - Sci-Fi picture


Frank Sinatra - Swingin Lovers & Sept of My Years (Reprise)[LP-Vinyl] RECORDS
$10.0
Frank Sinatra - Swingin Lovers & Sept of My Years (Reprise)[LP-Vinyl] RECORDS picture


Ion Audio Turntable & Vinyl Record Archiver with USB Connector TTUSB10 - EUC
$59.99
Ion Audio Turntable & Vinyl Record Archiver with USB Connector TTUSB10 - EUC picture


Vintage 1975 LP Big Rig Truckers LP Put the Hammer Down - Vinyl Record
$15.99
Vintage 1975 LP Big Rig Truckers LP Put the Hammer Down - Vinyl Record picture


1970`s Sanrio HELLO KITTY Vinyl Record STICKERS Vintage VERY RARE
$0.99
1970`s Sanrio HELLO KITTY Vinyl Record STICKERS Vintage VERY RARE picture