Your One-Stop Source For
Music Lyrics
Bass and Guitar Tabs
and More...
Music Lyrics Bass and Guitar Tabs

 

The Tabs Are Below

Learn To Read Tab
Chords Handbook
Corrections & Additions
Get Official Tab
RBF tabs @ 911Tabs

This is the bass tab for the song snoop dob bay by reel big fish. its really easy once you get the hang of it and very repetitive too. So please enjoy and dont hesitate to comment or grade this tab!!! The rythme changes a few times but ull see, its very easy to figure out:

 

Okay, the intro is played gently and goes like this:

G--------------------------------------

D--5-5-7/9------------7--5-5-7/9-------

A----------9-7---55-5------------9-7---

E--------------------------------------

 

G------2-0----

D--0h2-----2--

A---------------

E---------------

 

Then comes the main riff which goes like this: (X3)

G-------------------------------------

D------------5---------0---5-5-2-0----

A-------0--5---7-2h3-3---3------------

E---3-3--3----------------------------

 

On the fourth time play:

G----------------------

D-------------5--------

A-------0---5---7-2h3--

E---3-3---3------------

 

After the silence you play the main riff again (X8)

G------------------------------------

D-------------5---------0---5-5-2-0--

A-------0---5---7-2h3-3---3----------

E---3-3---3--------------------------

 

After that you have a break:

G-----------------------------------------

D-----------------------------------------

A--3-3-2-3---3-2-3---3-2-3---3-2-3--

E------------------------------------------

 

(X2)

G-------------------------

D------7--------9---9-----(let ring the last note)

A--5-5---5-/7-7---7-------

E-------------------------

 

Slowly:

G-------------------

D-------------------

A--3---3-2---2-0--

E-------------------

 

Very fast:

G------------------

D------------------

A--0-2-3-2-0-----

E-------------------

 

And once again, the main riff:

G------------------------------------

D-------------5---------0---5-5-2-0--

A-------0---5---7-2h3-3---3----------

E---3-3---3--------------------------

 

And the break:

D-----------------------------------------

A--3-3-2-3---3-2-3---3-2-3---3-2-3--

E------------------------------------------

 

(X2)

G----------------------

D------7--------9---9--(let ring the last note)

A--5-5---5-/7-7---7----

E----------------------

Slowly:

G-------------------

D-------------------

A--3---3-2---2-0--

E-------------------

 

The part with the distortion goes: (X8)

G--------------------------

D--------------------------

A-------0-0--3-33-2-2---

E--3-3---------------------

 

Slowly (X2)

G----------------------

D-------4-4-5-5-7-7-

A--5-5----------------

E----------------------

 

Slowly:

G-------------------

D-------------------

A--3---3-2---2-0--

E-------------------

 

Very fast:

G------------------

D------------------

A--0-2-3-2-0-----

E-------------------

 

And than we have the main riff: (X8)

G------------------------------------

D-------------5---------0---5-5-2-0--

A-------0---5---7-2h3-3---3----------

E---3-3---3--------------------------

 

And the break:

G-----------------------------------

D-----------------------------------

A--3-3-2-3---3-2-3---3-2-3---3-2-3--

E-----------------------------------

 

(X2)

G----------------------

D------7--------9---9--(let ring the last note)

A--5-5---5-/7-7---7----

E----------------------

 

Slowly:

G-------------------

D-------------------

A--3---3-2---2-0----

E-------------------

 

Very fast:

G------------------

D------------------

A--0-2-3-2-0-------

E------------------

 

And the song finishes like that:

G---------

D---------

A---------

E---3-3---

 

 

Return to my to my RBF bass tabs page

The Tablature is Copyright its respective owners.

Sign Up For My Newsletter
Subscribe | Unsubscribe

Site Map | Disclaimer | Privacy Policy | Media Kit | Submissions/Corrections

Website © 2000-2014 mattsmusicpage.com. All rights reserved.

Legal & DMCA: Matt's Music Page has been providing lyrics and tabs in a legal way, paying royalties each year to a few organizations. Then, all lyrics and tabs were removed from the site. Now, there's a new owner to the site, which purchased it August 26, 2014, and he is in negotiation to obtain licensing from BMI at the moment. If you have a specific DMCA request -- please do not hesitate to contact me via the contact button on top. I will do my very best to keep this site fully legal.

Get our toolbar!

 

Hard Rock Pin Las Vegas 4th of july red white and blue guitar
$5.0
Hard Rock Pin Las Vegas 4th of july red white and blue guitar picture


Hard Rock Pin Hollywood Fl Bell Girl with dice luggage and guitar
$5.0
Hard Rock Pin Hollywood Fl Bell Girl with dice luggage and guitar picture


Hard Rock Pin Las Vegas King of Clubs Guitar rare only 3 lines of info on back
$5.0
Hard Rock Pin Las Vegas King of Clubs Guitar rare only 3 lines of info on back picture


Hard Rock Pin Edmonton guitar pin
$5.0
Hard Rock Pin Edmonton guitar pin picture


Lladro Guitar Boy #4614 - Beautiful Piece of Lladro
$109.0
Lladro Guitar Boy #4614 - Beautiful Piece of Lladro picture