Your One-Stop Source For
Music Lyrics
Bass and Guitar Tabs
and More...
Music Lyrics Bass and Guitar Tabs

 

The Tabs Are Below

Learn To Read Tab
Chords Handbook
Corrections & Additions
Get Official Tab
RBF tabs @ 911Tabs

Band: Reel Big Fish

Song: Brand New Hero

By: Nate Nepsky (theamazingzoob@yahoo.com)

 

I posted this before but Punkhardcore took it off. Here it is and I'm

re working "Dateless Losers" beacuse they took that off too. Enjoy

 

Intro/Verses:

e|---------------------------------------------------------------------------|

B|---------------------------------------------------------------------------|

G|--6-6-6-6--6-6-6-6---------------------------------------------------------|

D|--6-6-6-6--6-6-6-6--4-4-4-4--4-4-4-4-4-4-4-4-4-----------------------------|

A|--4-4-4-4--3-3-3-3--4-4-4-4--4-4-4-4-4-4-4-4-4-----------------------------|

E|--------------------2-2-2-2--1/2-2-2-2-2-2-2-2-----------------------------|

 

Last time

e|---------------------------------------------------------------------------|

B|---------------------------------------------------------------------------|

G|--6-6-6-6--6-6-6-6---------------------------------------------------------|

D|--6-6-6-6--6-6-6-6--4-4-4-4--6-6-6-6-6-6-6-6-------------------------------|

A|--4-4-4-4--3-3-3-3--4-4-4-4--6-6-6-6-6-6-6-6-------------------------------|

E|--------------------2-2-2-2--4-4-4-4-4-4-4-4-------------------------------|

 

Chorus

e|---------------------------------------------------------------------------|

B|---------------------------------------------------------------------------|

G|--6-6-6-6-----------8-8-8-8------------------------------------------------|

D|--6-6-6-6--8-8-8-8--8-8-8-8--4--6------------------------------------------|

A|--4-4-4-4--8-8-8-8--6-6-6-6--4--6------------------------------------------|

E|-----------6-6-6-6-----------2--4------------------------------------------|

 

Riff after chorus

e|---------------------------------------------------------------------------|

B|---------------------------------------------------------------------------|

G|---------------------------------------------------------------------------|

D|------------------1~--1-3-4~-----------------------------------------------|

A|--4~-3~-1--1-3-4~----------------------------------------------------------|

E|---------------------------------------------------------------------------|

 

Solo

e|---------------------------------------------------------------------------|

B|----------------------------------------------------------------9----------|

G|--11-10-8-10---------11-10-8-10---------11-10-8-10------8-10-11------------|

D|-------------11-10-8------------11-10-8--------------11--------------------|

A|---------------------------------------------------------------------------|

E|---------------------------------------------------------------------------|

 

e|-----------------------------------------------------9--13/-11~------------|

B|-------------9-11-9----------------9------------9-11-----------------------|

G|-----8-10-11--------11-----8-10-11------8-10-11----------------------------|

D|--11--------------------11-----------11------------------------------------|

A|---------------------------------------------------------------------------|

E|---------------------------------------------------------------------------|

 

Break

e|---------------------------------------------------------------------------|

B|---------------------------------------------------------------------------|

G|--8-8--11-----------8-8--11-----------8-8--11-------8-8-8-8-8-8--11--------|

D|--8-8--11--6-6------8-8--11--6-6------8-8--11--6-6--8-8-8-8-8-8--11--------|

A|--6-6--9---6-6--6/8\6-6--9---6-6--6/8\6-6--9---6-6--6-6-6-6-6-6--9---------|

E|-----------4-4---------------4-4---------------4-4-------------------------|

 

End on

e|---------------------------------------------------------------------------|

B|---------------------------------------------------------------------------|

G|--11-10-8-10---------------------------------------------------------------|

D|-------------11------------------------------------------------------------|

A|---------------------------------------------------------------------------|

E|---------------------------------------------------------------------------|

 

Return to my to my RBF tabs page

The Tablature is Copyright its respective owners.

Sign Up For My Newsletter
Subscribe | Unsubscribe

Site Map | Disclaimer | Privacy Policy | Media Kit | Submissions/Corrections

Website © 2000-2014 mattsmusicpage.com. All rights reserved.

Legal & DMCA: Matt's Music Page has been providing lyrics and tabs in a legal way, paying royalties each year to a few organizations. Then, all lyrics and tabs were removed from the site. Now, there's a new owner to the site, which purchased it August 26, 2014, and he is in negotiation to obtain licensing from BMI at the moment. If you have a specific DMCA request -- please do not hesitate to contact me via the contact button on top. I will do my very best to keep this site fully legal.

Get our toolbar!