Your One-Stop Source For
Music Lyrics
Bass and Guitar Tabs
and More...
Music Lyrics Bass and Guitar Tabs

 

The Tabs Are Below

Learn To Read Tab
Chords Handbook
Corrections & Additions
Get Official Tab
RBF tabs @ 911Tabs

I WANT YOUR GIRLFRIEND TO BE MY GIRLFRIEND - Reel Big Fish

-------------------------------------------------------------------------------

 

Submitted By : Dejackamo Von Rictor

 

This has a really sweet bass line, and I'm pretty sure the tabs good

for this one. "blondes are super sexy" Here ya go...

 

~=let ring >=play many times h= hammer on

Intro:

G-------------------------------------------------

D-------------------------------------------------

A-------2h3-------2--3-3-2-3-2-0------------------

E--3-3--------3-3---------------------------------

 

Verse: (part after stars is after 3x verse NOT ALL THE TIME)

G-------------------------*--------------------------

D-------------------------*-5--4--2------------------

A----2--5--2--3--2--0--5--*----------5--3--2---------

E-3-----------------------*-------------------5--3---

 

Pre Chorus

G---------------------------------------------------

D--------------------5-----------7------------------

A--------------3--3----3---5--5----5----------------

E-5-5-5-5-5-5---------------------------------------

 

Chorus

G---------------------------------------------

D---------------------------------------------

A--------3-3-3--5-5---------------------------

E-3--3-3--------------------------------------

 

Bridge

G---------------------------------------------------

D------5--------------------------5-----------------

A---------3--3---5--3--2-------------3-3--5--3--5---

E-3-3---------------------5--3-3--------------------

 

Outro:

G----------------------------------------------

D----------------------------------------------

A----------3---------5-------------------------

E-3------------------------3>-------3~---------

 

 

Return to my to my RBF bass tabs page

The Tablature is Copyright its respective owners.

Sign Up For My Newsletter
Subscribe | Unsubscribe

Site Map | Disclaimer | Privacy Policy | Media Kit | Submissions/Corrections

Website © 2000-2014 mattsmusicpage.com. All rights reserved.

Legal & DMCA: Matt's Music Page has been providing lyrics and tabs in a legal way, paying royalties each year to a few organizations. Then, all lyrics and tabs were removed from the site. Now, there's a new owner to the site, which purchased it August 26, 2014, and he is in negotiation to obtain licensing from BMI at the moment. If you have a specific DMCA request -- please do not hesitate to contact me via the contact button on top. I will do my very best to keep this site fully legal.

Get our toolbar!

 

1939 LYRIC THEATRE New York PHOTO
$5.83
1939 LYRIC THEATRE New York PHOTO picture


Star Spangled Banner or Marines Hymn lyrics signed by WWII Charles W. Lindberg
$10.0
Star Spangled Banner or Marines Hymn lyrics signed by WWII Charles W. Lindberg picture


OLD LARGE HISTORIC PHOTO OF THE LYRIC THEATRE, SYDNEY c1930s, WAR BONDS BOOTH
$7.42
OLD LARGE HISTORIC PHOTO OF THE LYRIC THEATRE, SYDNEY c1930s, WAR BONDS BOOTH picture


SONG OF REVOLUTION CARD SET WITH 13 MOST FAVORED COMMUNIST SONGS LYRICS + NOTES
$24.99
SONG OF REVOLUTION CARD SET WITH 13 MOST FAVORED COMMUNIST SONGS LYRICS + NOTES picture


OLD LARGE HISTORIC PHOTO OF THE LYRIC THEATRE, SYDNEY c1930s, WAR LOANS BOOTH
$7.42
OLD LARGE HISTORIC PHOTO OF THE LYRIC THEATRE, SYDNEY c1930s, WAR LOANS BOOTH picture