Your One-Stop Source For
Music Lyrics
Bass and Guitar Tabs
and More...
Music Lyrics Bass and Guitar Tabs

 

The Tabs Are Below

Learn To Read Tab
Chords Handbook
Corrections & Additions
Get Official Tab
RBF tabs @ 911Tabs

 

Beer

Reel Big Fish

 

 

Rhythm for Intro, Verse, Leads, & Outro Solo (gtr. 1):

-5-5--5--5--5-|-1-1--1--1--1-|-0-0--0--0--0-|-3-3--3--3--3-|

-5-5--5--5--5-|-1-1--1--1--1-|-1-1--1--1--1-|-3-3--3--3--3-|

-5-5--5--5--5-|-2-2--2--2--2-|-0-0--0--0--0-|-4-4--4--4--4-|

-7-7--7--7--7-|-3-3--3--3--3-|-2-2--2--2--2-|-5-5--5--5--5-|

--------------|--------------|--------------|--------------|

--------------|--------------|--------------|--------------|

1st & 2nd leads (gtr. 2)

Am F C G

-/5--5--5-------|--------------10-|-12--12--10-----10-|-(10)--------|

----------5/-10-|-(10)------13----|------------13-----|-------------|

----------------|-----------------|-------------------|-------------|

----------------|-----------------|-------------------|-------------|

----------------|-----------------|-------------------|-------------|

----------------|-----------------|-------------------|-------------|

Am F C

--------------------------|---------------------|---------------|

-10p8---------------------|---------------------|---------------|

------9-7--5--7--5-----5--|-(5)--------5-7-b(9)-|-(9)----7p5--7-|

--------------------7-----|--------5-7----------|---------------|

--------------------------|------7--------------|---------------|

--------------------------|---------------------|---------------|

G

--------------|

--------------|

-(7)----------|

------7-5-----|

--------------|

--------------|

*(gtr. 2) Chorus (gtrs. 1 & 2): Play 4x

---------|---------|----------|---------|---------|----------|

---------|---------|----------|---------|---------|----------|

-5-5-5-5-|---------|*---------|-5-5-5-5-|---------|---------*|

-5-5-5-5-|-5-5-5-5-|*-3-3-3-3-|-5-5-5-5-|-5-5-5-5-|-5-5-5-5-*|

-3-3-3-3-|-5-5-5-5-|--3-3-3-3-|-3-3-3-3-|-5-5-5-5-|-5-5-5-5--|

---------|-3-3-3-3-|--1-1-1-1-|---------|-3-3-3-3-|-3-3-3-3--|

*play before 1st 2 choruses

Guitar Solo (gtr. 2):

(Am) (F) (C) (G)

--------------------------|--------------|------------------------|--------|

-/10----10----10p8---8----|--------------|------------------------|--------|

-------------------9------|-9-8--7--5----|------5-7b(8)--r(7)-5---|--------|

--------------------------|------------7-|-(7)------------------7-|-(7)----|

--------------------------|--------------|------------------------|--------|

--------------------------|--------------|------------------------|--------|

(Am then F) (C) (G) (Am then F)

--------------|---------------|--------|----------------|

--------------|---------------|--------|----------------|

*------------*|-/9--9--7-5----|--------|*--------------*|

*------7-----*|-------------7-|-(7)----|*-5/7--7--7--7-*|

--------------|---------------|--------|----------------|

--5--5--------|---------------|--------|--3/5--5--5--5--|

(C) (G) (Am) (F) (C) (G)

-----------------------|---------|-17####|-20####|-22####|-X####|

-----------------------|---------|-17####|-20####|-22####|-X####|

-19b(21)----19-17------|---------|-------|-------|-------|------|

------------------19---|-(19)----|-------|-------|-------|------|

-----------------------|---------|-------|-------|-------|------|

-----------------------|---------|-------|-------|-------|------|

Bridge, half - time feel (gtr. 1)

|--5--5--1--1-|---0----0------------------|--5--5--1--1-|

|--5--5--1--1-|---1----1------------------|--5--5--1--1-|

|--5--5--2--2-|---0----0------------------|--5--5--2--2-|

|-------------|---------------------------|-------------|

|-------------|---------------------------|-------------|

|-------------|---------------------------|-------------|

|(gtr. 2)

|-------------|---------------------------|-------------|

|-------------|---------------------------|-------------|

|-------------|-----------7b---(7.5)--7p5-|-------------|

|-------------|-----------7b---(7.5)------|-7--\--------|

|-------------|---------------------------|-------------|

|-------------|---------------------------|-------------|

Play 3x

|---0----0-----------------|---5--5--1--1-|---0----0----3-X---3-X----|

|---1----1-----------------|---5--5--1--1-|---1----1----3-X---3-X----|

|---0----0-----------------|*--5--5--2--2-|---0----0----4-X---3-X---*|

|--------------------------|*-------------|-------------------------*|

|--------------------------|--------------|--------------------------|

|--------------------------|--------------|--------------------------|

|

|--------------------------|

|--------------------------|

|-------------------5-7-5--|

|---------------5-7--------|

|-----------5-7------------|

|--------------------------|

p.m.....

double - time

(gtr. 1) (gtrs. 1 & 2)

--5--5--1--1-|---------|---------|---------|

--5--5--1--1-|---------|---------|---------|

--5--5--2--2-|-5-5-5-5-|---------|---------|

-------------|-5-5-5-5-|-5-5-5-5-|-5-5-5-5-|

-------------|-3-3-3-3-|-5-5-5-5-|-5-5-5-5-|

-------------|---------|-3-3-3-3-|-3-3-3-3-|

Outro (gtrs. 1 & 2)

----------|---------|---------|----------|

----------|---------|---------|----------|

*---------|---------|-5-5-5-5-|---------*|

*-7-7-7-7-|-3-3-3-3-|-5-5-5-5-|-5-5-5-5-*|

--7-7-7-7-|-3-3-3-3-|-3-3-3-3-|-5-5-5-5--|

--5-5-5-5-|-1-1-1-1-|---------|-3-3-3-3--|

Outro Solo (gtr. 2) Am

-----|-----|-----|-----|-----|-----|-----|-----|--------------------|

-----|-----|-----|-----|-----|-----|-----|-----|--------------------|

Play same as 1st & 2nd leads-|-----|-----|-----|*-14-14--14--14--14-|

-----|-----|-----|-----|-----|-----|-----|-----|*-------------------|

-----|-----|-----|-----|-----|-----|-----|-----|--12-12--12--12--12-|

-----|-----|-----|-----|-----|-----|-----|-----|--------------------|

F C G

-------------------|--------------|--------------------|

-------------------|--------------|--------------------|

-10-10--10--10--10-|-5-5--5--5--5-|-12-12--12--12--12-*|

-------------------|--------------|-------------------*|

--8--8---8---8---8-|-3-3--3--3--3-|-10-10--10--10--10--|

-------------------|--------------|--------------------|

(gtr. 1)

bass, drums,-|-5----||

and horns----|-5----||

ad lib-------|-5----||

-------------|-7----||

-------------|------||

-------------|------||

 

 

--------------------------------------------------------------------------------

Beer

Reel Big Fish

 

Intro: Am F C G

 

Am F C

G

She called me late last night, to say she loved me so

Am F C G

it didn't matter anymore,

Am F C G

but I say she never cared and that she never will,

Am F

I'd do it all again

C G

I guess I'll have to wait until then

 

F C G

If I get drunk well, I'll pass out on the floor now baby

F C G

you won't bother me no more

F C G

If you're drinkin' well, you know that you're my friend

F C G

and I say I think I'll have myself a beer

 

Am F C

G

She called me late last night, to say she loved me, so...?

Am F C

but I guess she changed her mind

Am F C G

Well I should have known it wouldn't be alright,

Am F C G

but I can't live without her so I won't even try...

Am F C G

maybe some day, I'll think of what to say

Am F C G

maybe next time I'll remember what to do,

Am F C G

she looks like heaven, maybe this is hell,

Am F C

G

said she'd do it all again, she'd promise not to tell

F C G

If I get drunk well, I'll pass out on the floor now baby

F C G

you won't bother me no more (and she said)

F C G

It's okay boy cause you know we'll be good friends and I say,

F C G

I think I'll have myself a beer.

 

Guitar Riff:

E------------------------------------------------10---12---12---10---------10--------

B--------10---10---10---10---/10---13-----------------------------13--------------

G-------------------------------------------------------------------------------------------

D-------------------------------------------------------------------------------------------

A--------------------------------------------------------------------------------------------

E--------------------------------------------------------------------------------------------

 

 

Return to my to my RBF tabs page

The Tablature is Copyright its respective owners.

Sign Up For My Newsletter
Subscribe | Unsubscribe

Site Map | Disclaimer | Privacy Policy | Media Kit | Submissions/Corrections

Website © 2000-2014 mattsmusicpage.com. All rights reserved.

Legal & DMCA: Matt's Music Page has been providing lyrics and tabs in a legal way, paying royalties each year to a few organizations. Then, all lyrics and tabs were removed from the site. Now, there's a new owner to the site, which purchased it August 26, 2014, and he is in negotiation to obtain licensing from BMI at the moment. If you have a specific DMCA request -- please do not hesitate to contact me via the contact button on top. I will do my very best to keep this site fully legal.

Get our toolbar!