Your One-Stop Source For
Music Lyrics
Bass and Guitar Tabs
and More...
Music Lyrics Bass and Guitar Tabs

 

The Tabs Are Below

Learn To Read Tab
Chords Handbook
Corrections & Additions
Get Official Tab
RBF tabs @ 911Tabs

 

All I Want Is More

Reel Big Fish

 

 

clean intro

A C#m D F#/G G A C#m D D?

e|-5-5-x-5-x-4-x-4-|x-5-x-5-x-2/3-3-|-x-5-x-5-x-4-x-4-|-x-5-x-5--8--8---|

B|-5-5-x-5-x-5-x-5-|x-7-x-7-x-2/3-3-|-x-5-x-5-x-5-x-5-|-x-7-x-7--7--7---|

G|-6-6---6---6---6-|--7---7---3/4-4-|---6---6---6---6-|---7---7--7--7---|

D|-7-7--(7)-(6)-(6)|-(7)-(7)--4/5-5-|--(7)-(7)-(6)-(6)|--(7)-(7)(7)(7)--|

A|-7-7------(4)-(4)|-(5)-(5)--------|--(7)-----(4)-(4)|--(5)-(5)(5)(5)--|

E|-5-5-------------|----------------|--(5)------------|-----------------|

A C#m D F#/G G A C#m D F#/G G

e|-x-5-x-5-x-4-x-4-|x-5-x-5-x-2/3-3-|-x-5-x-5-x-4-x-4-|-x-5-x-5-x-2/3-3-|

B|-x-5-x-5-x-5-x-5-|x-7-x-7-x-2/3-3-|-x-5-x-5-x-5-x-5-|-x-7-x-7-x-2/3-3-|

G|---6---6---6---6-|--7---7---3/4-4-|---6---6---6---6-|---7---7---3/4-4-|

D|--(7)-(7)-(6)-(6)|-(7)-(7)--4/5-5-|--(7)-(7)-(6)-(6)|--(7)-(7)--4/5-5-|

A|--(7)-(7)-(4)-(4)|-(5)-(5)--------|----------(4)-(4)|--(5)-(5)--------|

E|-----------------|----------------|-----------------|-----------------|

A C#m D F#/G G A C#m D D?

e|-x-5-x-5-x-4-x-4-|x-5-x-5-x-2/3-3-|-x-5-x-5-x-4-x-4-|-x-5-x-5--8--8---|

B|-x-5-x-5-x-5-x-5-|x-7-x-7-x-2/3-3-|-x-5-x-5-x-5-x-5-|-x-7-x-7--7--7---|

G|---6---6---6---6-|--7---7---3/4-4-|---6---6---6---6-|---7---7--7--7---|

D|--(7)-(7)-(6)-(6)|-(7)-(7)--4/5-5-|--(7)-(7)-(6)-(6)|--(7)-(7)(7)(7)--|

A|----------(4)-(4)|-(5)-(5)--------|----------(4)-(4)|--(5)-(5)(5)(5)--|

E|-----------------|----------------|-----------------|-----------------|

 

 

Main riff

A C#m D F# G A C#m D C#m A D C#m A

e||---------------|----------------||---------------|-------------------|

B||--------5-5555-|-7-7777-----(4x)||--------5-5555-|-------------------|

G||*-------6-6666-|-7-7777--------*||--------6-6666-|-7--6-----7--6-----|

D||*7-7777-6-6666-|-7-7777-4-4-5-5*||-7-7777-6-6666-|-7--6--7--7--6--7--|

A||-7-7777-4-4444-|-5-5555-4-4-5-5-||-7-7777-4-4444-|-5--4--7--5--4--7--|

E||-5-5555--------|--------2-2-3-3-||-5-5555--------|-------5--------5--|

E E D C# A E D C#D C#A

e|---------| ||---------------------||------------------|

B|---------| ||---------------------||------------------|

G|---------| RIFF 1= ||*9999-9-9-7-6-6-----*||-99-9--7-6-77-6---| =RIFF 1

D|-2-------| ||*---------------7-7-*||----------------7-|

A|-2-------| ||-7777-7-7-5-4-4------||-77-7--5-4-55-4---|

E|-0-------| ||----------------5-5--||----------------5-|

 

1st verse E F# D A E

e||--A------------------|---------------------||------------------------|

B||---------------------|-----------------(3x)||------------------------|

G||*--------------------|-----------7--------*||------------------------|

D||*-7---------2--------|-4---------7(pm....)*||-7---------2------------|

A||--7(pm....)-2(pm....)|-4(pm....)-5-555555--||-7(pm....)-2(pm....)----|

E||--5-555555--0-000000-|-2-222222------------||-5-555555--0-000000-----|

F# D

e|-------------------|

B|-------------------|

G|----------7-7-7777-|

D|-4-4------7-7-7777-|

A|-4-4-4444-5-5-5555-|

E|-2-2-2222----------|

 

1st chorus

A C#m D F# G E

e||----------------|-----------------||----|--------|

B||---------5-5555-|-7-7777------(4x)||----|--------|

G||*--------6-6666-|-7-7777---------*||----|-RIFF-1-|

D||*-7-7777-6-6666-|-7-7777-4-4-5-5-*||-2--|--------|

A||--7-7777-4-4444-|-5-5555-4-4-5-5--||-2--|--------|

E||--5-5555--------|--------2-2-3-3--||-0--|--------|

 

2nd verse 2nd chorus

A E F# D

e|---------|---------------------------------------||----------||-------

B|---------|---------------------------------------||----------||-------

G|*-verse-*|------------------------------7-7-7777-||*-chorus-*||-------

D|*-again-*|-7---------2---------4-4------7-7-7777-||*---4x---*||-------

A|---3x----|-7(pm....)-2(pm....)-4-4-4444-5-5-5555-||----------||-------

E|---------|-5-555555--0-000000--2-2-2222----------||----------||-------

 

interlude

E D E D C#m A D C#m A

e|----------|---------|----------|------------------|

B|----------|---------|----------|------------------|

G|----------|-7-------|----------|-7--6-----7--6----|

D|-2--------|-7-------|-2--------|-7--6--7--7--6--7-|

A|-2--------|-5-------|-2--------|-5--4--7--5--4--7-|

E|-0--------|---------|-0--------|-------5--------5-|

| E D E D C#m A D C#m A |

e|----------|---------|----------|------------------|

B|-9-10-9---|-7-8-7---|-9-10-9---|------------------|

G|-9------9-|-7-----7-|-9------9-|-7--6-----7--6----|

D|-9--------|-7-------|-9--------|-7--6--7--7--6--7-|

A|-7--------|-5-------|-7--------|-5--4--7--5--4--7-|

E|----------|---------|----------|-------5--------5-|

 

SOLO: not sure this measure. fake this:

e|-----------------------------------------------|--7----7----7----7----|

B|-----------------------------------------------|/9-10-9-10-9-10-9-10-9|

G|--------------------------------------------/9~|----------------------|

D|-6/7-77-6/7-77-6/7-77-6/7-77-6/7-77-6/7-777\---|----------------------|

A|-----------------------------------------------|----------------------|

E|-----------------------------------------------|----------------------|

 

e|-10--9--7------|-9-10^9-10^9-12^9-10^9-12^9-10^9-12^9-10^9-12^9-10^9--|

B|-----------10~-|------------------------------------------------------|

G|---------------|------------------------------------------------------|

D|---------------|------------------------------------------------------|

A|---------------|------------------------------------------------------|

E|---------------|------------------------------------------------------|

 

e|-12^9-10^9-12bend-10-9--10-9---10-9----------------------|

B|----------------------------10-----10-(10)^12-10-9-10~-\-|

G|---------------------------------------------------------|

D|---------------------------------------------------------|

A|---------------------------------------------------------|

E|---------------------------------------------------------|

 

 

A C#m D C#m A D C#m A E

e||----------||---------------|------------------|-----

B||----------||---------------|------------------|-----

G||*-chorus-*||--------6-6666-|-7--6-----7--6----|-----

D||*---7x---*||-7-7777-6-6666-|-7--6--7--7--6--7-|-2---

A||----------||-7-7777-4-4444-|-5--4--7--5--4--7-|-2---

E||----------||-5-5555--------|-------5--------5-|-0---

 

E D C# A E D C#D C#A

e||----------------------||---------------------

B||----------------------||---------------------

G||*-9999-9-9-7-6-6-----*||-99-9-7-6-77-6-------

D||*----------------7-7-*||---------------7\----

A||--7777-7-7-5-4-4------||-77-7-5-4-55-4-7\----

E||-----------------5-5--||---------------5\----

 

e|----------------------------------------------------|

B|----------------------------------------------------|

G|-play-clean-intro,--fade-out------------------------|

D|----------------------------------------------------|

A|----------------------------------------------------|

E|----------------------------------------------------|

 

 

Return to my to my RBF tabs page

The Tablature is Copyright its respective owners.

Sign Up For My Newsletter
Subscribe | Unsubscribe

Site Map | Disclaimer | Privacy Policy | Media Kit | Submissions/Corrections

Website © 2000-2014 mattsmusicpage.com. All rights reserved.

Legal & DMCA: Matt's Music Page has been providing lyrics and tabs in a legal way, paying royalties each year to a few organizations. Then, all lyrics and tabs were removed from the site. Now, there's a new owner to the site, which purchased it August 26, 2014, and he is in negotiation to obtain licensing from BMI at the moment. If you have a specific DMCA request -- please do not hesitate to contact me via the contact button on top. I will do my very best to keep this site fully legal.

Get our toolbar!