Your One-Stop Source For
Music Lyrics
Bass and Guitar Tabs
and More...
Music Lyrics Bass and Guitar Tabs

 

The Tabs Are Below

Learn To Read Tab
Chords Handbook
Corrections & Additions
Get Official Tab
RBF tabs @ 911Tabs

 

 241

Reel Big Fish

 

 

riff 1:(clean)

B D E F#

e|-7-7-x-7-x-7-x-7-|-x-5-x-5-x-5-x-5/|-7-7-x-7-x-7-x-7-|-x-8--x-8--x-8--x-8--|

B|-7-7-x-7-x-7-x-7-|-x-7-x-7-x-7-x-7/|-9-9-x-9-x-9-x-9-|-x-10-x-10-x-10-x-10-|

G|-8-8-x-8-x-8-x-8-|-x-7-x-7-x-7-x-7/|-9-9-x-9-x-9-x-9-|-x-10-x-10-x-10-x-10-|

D|-9-9-x-9-x-9-x-9-|-x-7-x-7-x-7-x-7/|-9-9-x-9-x-9-x-9-|-x-10-x-10-x-10-x-10-|

A|-9-9---9---9---9-|---5---5---5---5/|-7-7---7---7---7-|---8----8----8----8--|

E|-----------------|-----------------|-----------------|---------------------|

 

riff 2:(clean)

Em B C B

e|-7-7-x-7-x-7-x-7-|-x-7-x-7-x-7-x-7/|-8--8--x-8--x-8--x-8-\|-7-7-x-7-x-7-x-7-|

B|-8-8-x-8-x-8-x-8-|-x-7-x-7-x-7-x-7/|-8--8--x-8--x-8--x-8-\|-7-7-x-7-x-7-x-7-|

G|-9-9-x-9-x-9-x-9-|-x-8-x-8-x-8-x-8/|-9--9--x-9--x-9--x-9-\|-8-8-x-8-x-8-x-8-|

D|-9-9-x-9-x-9-x-9-|-x-9-x-9-x-9-x-9/|-10-10-x-10-x-10-x-10\|-9-9-x-9-x-9-x-9-|

A|-7-7---7---7---7-|---9---9---9---9/|-10-10---10---10---10\|-9-9---9---9---9-|

E|-----------------|-----------------|----------------------|-----------------|

Em B C D

e|-7-7-x-7-x-7-x-7-|-x-7-x-7-x-7-x-7/|-8--8--x-8--x-8--x-8--|-5-5-x-5-x-5-x-5-|

B|-8-8-x-8-x-8-x-8-|-x-7-x-7-x-7-x-7/|-8--8--x-8--x-8--x-8--|-7-7-x-7-x-7-x-7-|

G|-9-9-x-9-x-9-x-9-|-x-8-x-8-x-8-x-8/|-9--9--x-9--x-9--x-9--|-7-7-x-7-x-7-x-7-|

D|-9-9-x-9-x-9-x-9-|-x-9-x-9-x-9-x-9/|-10-10-x-10-x-10-x-10-|-7-7-x-7-x-7-x-7-|

A|-7-7---7---7---7-|---9---9---9---9/|-10-10---10---10---10-|-5-5---5---5---5-|

E|-----------------|-----------------|----------------------|-----------------|

 

riff 3:(distorted)

A C A

e|---------------------------|

B|-----------------------r---|

G|---------5-5-----------e---|

D|-7-7-----5-5-----7-7---s---|

A|-7-7-----3-3-----7-7---t---|

E|-5-5-------------5-5-------|

 

ORDER:

Riff 1 4x

Riff 2 1x

Riff 3 1x

Riff 1 4x

Riff 2 1x

Riff 3 1x

Riff 1 6x

 

e|------------------|

B|------------------|

G|/11--9--7--6--4---|

D|--------------4---|

A|/(9)(7)(5)(4)-2---|

E|------------------|

 

--------------------------------------------------------------------------------

241

Reel Big Fish

 

most of the song just play this B, D, E, G, F#

 

THEN PLAY THIS A, C, D, G, F#

 

 

Return to my to my RBF tabs page

The Tablature is Copyright its respective owners.

Sign Up For My Newsletter
Subscribe | Unsubscribe

Site Map | Disclaimer | Privacy Policy | Media Kit | Submissions/Corrections

Website © 2000-2014 mattsmusicpage.com. All rights reserved.

Legal & DMCA: Matt's Music Page has been providing lyrics and tabs in a legal way, paying royalties each year to a few organizations. Then, all lyrics and tabs were removed from the site. Now, there's a new owner to the site, which purchased it August 26, 2014, and he is in negotiation to obtain licensing from BMI at the moment. If you have a specific DMCA request -- please do not hesitate to contact me via the contact button on top. I will do my very best to keep this site fully legal.

Get our toolbar!