Your One-Stop Source For
Music Lyrics
Bass and Guitar Tabs
and More...
Music Lyrics Bass and Guitar Tabs

 

The Tabs Are Below

Learn To Read Tab
Chords Handbook
Corrections & Additions
Get Official Tab
RHCP tabs @ 911Tabs

TEAR

 

Song opens with a C chord. Play and let ring;

 

e--------|

B-----5--|

G-----5--|

D-----5--|

A-----3--|

E--------|

 

The verses follow a C>G>Am pattern as below

 

C G Am

e-----------------------|

B-----5------3------5---|

G-----5------4------5---|

D-----5------5------7---|

A--3--3------5------7---|

E---------3------5------|

 

In alternate lines of the verse the following fills are heard;

 

C G Am

e----------------------------------------------------------|

B-----5-6-5-3------3-6-5-3-----5---5---------5-----5-------|

G-----5------------4-----------5-----5---5-----5-----5---5-|

D-----5------------5-----------7-------7---7-----7-----7---|

A--3--3------------5-----------7---------------------------|

E---------------3------------5-----------------------------|

 

 

CHORUS:

 

For the chorus the following chord sequence is repeated twice;

 

C Em/C Am F/A F Am F G

e---0-0---0-0---0-0---0-0---1-1---0-0---1-1---3---|

B---1-1-x-1-1-x-1-1-x-1-1-x-1-1-x-1-1-x-1-1-x-3---|

G---0-0-x-0-0-x-2-2-x-2-2-x-2-2-x-2-2-x-2-2-x-4---|

D---2-2-x-2-2-x-2-2-x-3-3-x-3-3-x-2-2-x-3-3-x-5---|

A---3-3---2-2---0-0---0-0---3-3---0-0---3-3---5---|

E---------0-0---------------1-1---------1-1---3---|

 

let the last G chord ring.

 

The chorus ends on Am while Anthony sings

"Say it now cause you never know"

 

 

SOLO:

 

e--------------------------------------------

B---5-6-8-6-5------------------------5--5----

G-------------5---4-5-7-5-4---4----5------5--

D---------------5-----------5----7-----------

A--------------------------------------------

E--------------------------------------------

 

e--------------------------------------

B------5--5--------5--5--------5--5----

G----5------5----5------5----5------5--

D--7-----------7-----------7-----------

A--------------------------------------

E--------------------------------------

 

e--------------------------------------------

B---5-6-8-6-5-----------6-5----------5--5----

G-------------5---4-5-7-----7-5----5------5--

D---------------5----------------7-----------

A--------------------------------------------

E--------------------------------------------

 

e-------------------------------------

B------5--5--------5--5-----------8---

G----5------5----5------5---5--7--9---

D--7-----------7------------7--9--10--

A-------------------------------------

E-------------------------------------

 

 

BRIDGE:

 

In the tab below the notes are to be picked extreamly

fast, and note that for the purposes of this tab each

note represents 1/4 of a bar of picking.

 

e---12-12-12-12-10-10-10-10-12-12-12-12-10-10-13-13-

B---------------------------------------------------

G---------------------------------------------------

D---------------------------------------------------

A---------------------------------------------------

E---------------------------------------------------

 

e---12-12-16-16-12-12-12-12-10-10-8-10--------------

B---------------------------------------------------

G---------------------------------------------------

D---------------------------------------------------

A---------------------------------------------------

E---------------------------------------------------

 

The trumpt solo following simply follows the chords for

the verses: C > G > Am > Am

 

Return to my Red Hot Chili Peppers tabs page

The Tablature is Copyright its respective owners.

Sign Up For My Newsletter
Subscribe | Unsubscribe

Site Map | Disclaimer | Privacy Policy | Media Kit | Submissions/Corrections

Website © 2000-2014 mattsmusicpage.com. All rights reserved.

Legal & DMCA: Matt's Music Page has been providing lyrics and tabs in a legal way, paying royalties each year to a few organizations. Then, all lyrics and tabs were removed from the site. Now, there's a new owner to the site, which purchased it August 26, 2014, and he is in negotiation to obtain licensing from BMI at the moment. If you have a specific DMCA request -- please do not hesitate to contact me via the contact button on top. I will do my very best to keep this site fully legal.

Get our toolbar!