Your One-Stop Source For
Music Lyrics
Bass and Guitar Tabs
and More...
Music Lyrics Bass and Guitar Tabs

The Red Hot Chili Peppers Guitar Tabs Are Below

Learn To Read Tab
Chords Handbook
Corrections & Additions
Get Official Tab
RHCP tabs @ 911Tabs

Storm in a Teacup by Red Hot Chili Peppers (Anthony Kiedis, John Frusciante,

Michael "Flea" Balzary, Chad Smith)

From Stadium Arcadium (2006)

Tabbed by Juan Manuel Jimenez, from Tucumán, Argentina

 

Standard Tunning (E,A,D,g,b,e)

 

Tablature Legend

----------------

h - hammer-on

p - pull-off

b - bend

pb - pre-bend

r - bend release

/\ - slide into or out of (from/to "nowhere")

~ - vibrato

 

Intro:

e|-------------------------------------------|

b|-------------------------------------------|

g|-------------------------------------5--3--|

D|-3--5--5--3--5--5--3--5--5--3--5--5--------|

A|-------------------------------------------|

E|-------------------------------------------|

 

Verses:

Come on come on baby

e|-------------------------------------------|

b|-------------------------------------------|

g|-------------------------------------5--3--|

D|-3--5--5--3--5--5--3--5--5--3--5--5--------|

A|-------------------------------------------|

E|-------------------------------------------|

Let me show you what I'm talkin' about

e|-------------------------------------------|

b|-------------------------------------------|

g|-------------------------------------5--3--|

D|-3--5--5--3--5--5--3--5--5--3--5--5--------|

A|-------------------------------------------|

E|-------------------------------------------|

You try to be a lady

e|-------------------------------------------|

b|-------------------------------------------|

g|-------------------------------------5--3--|

D|-3--5--5--3--5--5--3--5--5--3--5--5--------|

A|-------------------------------------------|

E|-------------------------------------------|

But you're walkin' like a sour kraut

e|-------------------------------------------|

b|-------------------------------------------|

g|-------------------------------------5--3--|

D|-3--5--5--3--5--5--3--5--5--3--5--5--------|

A|-------------------------------------------|

E|-------------------------------------------|

Looka looka lika lika

e|-------------------------------------------|

b|-------------------------------------------|

g|-------------------------------------5--3--|

D|-3--5--5--3--5--5--3--5--5--3--5--5--------|

A|-------------------------------------------|

E|-------------------------------------------|

Like you wanna get some

e|-------------------------------------------|

b|-------------------------------------------|

g|-------------------------------------5--3--|

D|-3--5--5--3--5--5--3--5--5--3--5--5--------|

A|-------------------------------------------|

E|-------------------------------------------|

If you never tell a lie

e|-------------------------------------------|

b|-------------------------------------------|

g|-------------------------------------5--3--|

D|-3--5--5--3--5--5--3--5--5--3--5--5--------|

A|-------------------------------------------|

E|-------------------------------------------|

Then you never have to play dumb

e|-------------------------------------------|

b|-------------------------------------------|

g|-------------------------------------5--3--|

D|-3--5--5--3--5--5--3--5--5--3--5--5--------|

A|-------------------------------------------|

E|-------------------------------------------|

 

Bridge:

Dirty baby time you're gonna take some

e|-15----------------|

b|-15-----15TIMES----|

g|-15----------------|

D|-------------------|

A|-------------------|

E|-------------------|

Pretty baby love you're gonna make some

e|-15----------------|

b|-15-----15TIMES----|

g|-15----------------|

D|-------------------|

A|-------------------|

E|-------------------|

Little lady hearts you're gonna break some

e|-14----------------|

b|-14-----15TIMES----|

g|-14----------------|

D|-------------------|

A|-------------------|

E|-------------------|

Kinda shady tears you're gonna fake some

e|-14----------------|

b|-14-----15TIMES----|

g|-14----------------|

D|-------------------|

A|-------------------|

E|-------------------|

Dirty baby we've got a situation

e|-15----------------|

b|-15-----15TIMES----|

g|-15----------------|

D|-------------------|

A|-------------------|

E|-------------------|

Pretty baby open invitation

e|-15----------------|

b|-15-----15TIMES----|

g|-15----------------|

D|-------------------|

A|-------------------|

E|-------------------|

Little lady what a reputation

e|-14----------------|

b|-14-----15TIMES----|

g|-14----------------|

D|-------------------|

A|-------------------|

E|-------------------|

Kinda shady now you're gonna make again

e|-14----------------|

b|-14-----15TIMES----|

g|-14----------------|

D|-------------------|

A|-------------------|

E|-------------------|

 

Chorus:

I know you can straddle the atmosphere

e|-3------1--------1------3---------------|

b|-3------1--------1------3---------------|

g|-5------3--------1------3---------------|

D|-5------3--------3------5---------------|

A|-3------1--------3------5---------------|

E|-3------1--------1------3---------------|

A tiny storm in your teacup girl

e|-3------1--------1------3---------------|

b|-3------1--------1------3---------------|

g|-5------3--------1------3---------------|

D|-5------3--------3------5---------------|

A|-3------1--------3------5---------------|

E|-3------1--------1------3---------------|

I know you can battle the masses, dear

e|-3------1--------1------3---------------|

b|-3------1--------1------3---------------|

g|-5------3--------1------3---------------|

D|-5------3--------3------5---------------|

A|-3------1--------3------5---------------|

E|-3------1--------1------3---------------|

A tiny storm in your teacup girl

e|-3------1--------5------8---------------|

b|-3------1--------5------8---------------|

g|-5------3--------7------10--------------|

D|-5------3--------7------10--------------|

A|-3------1--------5------8---------------|

E|-3------1--------5------8---------------|

 

e|-3--3--x--1-----------------------------3-----------|

b|-3--3--x--1-----------------------------3-----------|

g|-3--3--x--1-----6 TIMES-and end with----3-----------|

D|-5--5--x--3-----------------------------5-----------|

A|-5--5--x--3-----------------------------5-----------|

E|-3--3--x--1-----------------------------3-----------|

 

Verses:

Every other day you say

e|-------------------------------------------|

b|-------------------------------------------|

g|-------------------------------------5--3--|

D|-3--5--5--3--5--5--3--5--5--3--5--5--------|

A|-------------------------------------------|

E|-------------------------------------------|

You're gonna have to bury em'

e|-------------------------------------------|

b|-------------------------------------------|

g|-------------------------------------5--3--|

D|-3--5--5--3--5--5--3--5--5--3--5--5--------|

A|-------------------------------------------|

E|-------------------------------------------|

Famous last words

e|-------------------------------------------|

b|-------------------------------------------|

g|-------------------------------------5--3--|

D|-3--5--5--3--5--5--3--5--5--3--5--5--------|

A|-------------------------------------------|

E|-------------------------------------------|

Spoken from the laserium

e|-------------------------------------------|

b|-------------------------------------------|

g|-------------------------------------5--3--|

D|-3--5--5--3--5--5--3--5--5--3--5--5--------|

A|-------------------------------------------|

E|-------------------------------------------|

Descendents had a record

e|-------------------------------------------|

b|-------------------------------------------|

g|-------------------------------------5--3--|

D|-3--5--5--3--5--5--3--5--5--3--5--5--------|

A|-------------------------------------------|

E|-------------------------------------------|

Sayin' somethin' 'bout Milo

e|-------------------------------------------|

b|-------------------------------------------|

g|-------------------------------------5--3--|

D|-3--5--5--3--5--5--3--5--5--3--5--5--------|

A|-------------------------------------------|

E|-------------------------------------------|

You can take an A-train

e|-------------------------------------------|

b|-------------------------------------------|

g|-------------------------------------5--3--|

D|-3--5--5--3--5--5--3--5--5--3--5--5--------|

A|-------------------------------------------|

E|-------------------------------------------|

But you're gonna have to lie low

e|-------------------------------------------|

b|-------------------------------------------|

g|-------------------------------------5--3--|

D|-3--5--5--3--5--5--3--5--5--3--5--5--------|

A|-------------------------------------------|

E|-------------------------------------------|

 

Chorus:

I know you can straddle the atmosphere

e|-3------1--------1------3---------------|

b|-3------1--------1------3---------------|

g|-5------3--------1------3---------------|

D|-5------3--------3------5---------------|

A|-3------1--------3------5---------------|

E|-3------1--------1------3---------------|

A tiny storm in your teacup girl

e|-3------1--------1------3---------------|

b|-3------1--------1------3---------------|

g|-5------3--------1------3---------------|

D|-5------3--------3------5---------------|

A|-3------1--------3------5---------------|

E|-3------1--------1------3---------------|

I know you can battle the masses, dear

e|-3------1--------1------3---------------|

b|-3------1--------1------3---------------|

g|-5------3--------1------3---------------|

D|-5------3--------3------5---------------|

A|-3------1--------3------5---------------|

E|-3------1--------1------3---------------|

A tiny storm in your teacup girl

e|-3------1--------5------8---------------|

b|-3------1--------5------8---------------|

g|-5------3--------7------10--------------|

D|-5------3--------7------10--------------|

A|-3------1--------5------8---------------|

E|-3------1--------5------8---------------|

 

e|-3--3--x--1-----------------------------3-----------|

b|-3--3--x--1-----------------------------3-----------|

g|-3--3--x--1-----6 TIMES-and end with----3-----------|

D|-5--5--x--3-----------------------------5-----------|

A|-5--5--x--3-----------------------------5-----------|

E|-3--3--x--1-----------------------------3-----------|

 

SOLO 1:

e|----------------------------------------------------------------------|

b|----------------------------------------------------------------------|

g|----------------------------------------------------------------------|

D|----------------------------------------------------------------------|

A|--10~~~----------8~~~----------5~~~----------3~~~---------------------|

E|----------------------------------------------------------------------|

 

e|----------------------------------------------------10-12-12br-10~----|

b|---------------9/11-11---13-13br-11~------9/11------------------------|

g|----------------------------------------------------------------------|

D|---/8~~~--------------------------------------------------------------|

A|----------------------------------------------------------------------|

E|----------------------------------------------------------------------|

 

e|---------------20-20br--18~----19b~~~---------------------------------|

b|----16/18-18----------------------------------------------------------|

g|----------------------------------------------------------------------|

D|----------------------------------------------------------------------|

A|----------------------------------------------------------------------|

E|----------------------------------------------------------------------|

 

Bridge:

Dirty baby time you're gonna take some

e|-15----------------|

b|-15-----15TIMES----|

g|-15----------------|

D|-------------------|

A|-------------------|

E|-------------------|

Pretty baby love you're gonna make some

e|-15----------------|

b|-15-----15TIMES----|

g|-15----------------|

D|-------------------|

A|-------------------|

E|-------------------|

Little lady hearts you're gonna break some

e|-14----------------|

b|-14-----15TIMES----|

g|-14----------------|

D|-------------------|

A|-------------------|

E|-------------------|

Kinda shady tears you're gonna fake some

e|-14----------------|

b|-14-----15TIMES----|

g|-14----------------|

D|-------------------|

A|-------------------|

E|-------------------|

Dirty baby we've got a situation

e|-15----------------|

b|-15-----15TIMES----|

g|-15----------------|

D|-------------------|

A|-------------------|

E|-------------------|

Pretty baby open invitation

e|-15----------------|

b|-15-----15TIMES----|

g|-15----------------|

D|-------------------|

A|-------------------|

E|-------------------|

Little lady what a reputation

e|-14----------------|

b|-14-----15TIMES----|

g|-14----------------|

D|-------------------|

A|-------------------|

E|-------------------|

Kinda shady now you're gonna make again

e|-14----------------|

b|-14-----15TIMES----|

g|-14----------------|

D|-------------------|

A|-------------------|

E|-------------------|

 

Chorus:

I know you can straddle the atmosphere

e|-3------1--------1------3---------------|

b|-3------1--------1------3---------------|

g|-5------3--------1------3---------------|

D|-5------3--------3------5---------------|

A|-3------1--------3------5---------------|

E|-3------1--------1------3---------------|

A tiny storm in your teacup girl

e|-3------1--------1------3---------------|

b|-3------1--------1------3---------------|

g|-5------3--------1------3---------------|

D|-5------3--------3------5---------------|

A|-3------1--------3------5---------------|

E|-3------1--------1------3---------------|

I know we may never get out of here

e|-3------1--------1------3---------------|

b|-3------1--------1------3---------------|

g|-5------3--------1------3---------------|

D|-5------3--------3------5---------------|

A|-3------1--------3------5---------------|

E|-3------1--------1------3---------------|

A tiny storm in your teacup girl

e|-3------1--------5------8---------------|

b|-3------1--------5------8---------------|

g|-5------3--------7------10--------------|

D|-5------3--------7------10--------------|

A|-3------1--------5------8---------------|

E|-3------1--------5------8---------------|

 

e|-3--3--x--1-----------------------------3-----------|

b|-3--3--x--1-----------------------------3-----------|

g|-3--3--x--1-----6 TIMES-and end with----3-----------|

D|-5--5--x--3-----------------------------5-----------|

A|-5--5--x--3-----------------------------5-----------|

E|-3--3--x--1-----------------------------3-----------|

 

SOLO 2:

e|----------------------------------------------------------------------|

b|-15h18p15-(8 TIMES)--8b~18r--15-----19-------------19-----------------|

g|--------------------------------17b----17r-15--17b----17r--15h17-15-15|

D|----------------------------------------------------------------------|

A|----------------------------------------------------------------------|

E|----------------------------------------------------------------------|

 

e|----------------------------------------------------------------------|

b|----------------------------------------------------------------------|

g|-12--14--14br---12~~~~~--10----/5---3h5--3pb~3b~~~~~~~----------------|

D|----------------------------------------------------------------------|

A|----------------------------------------------------------------------|

E|----------------------------------------------------------------------|

 

Thats it, isn't hard. If you practice this, is very easy, even the last solo

Return to my Red Hot Chili Peppers Guitar Tabs page

The Tablature is Copyright its respective owners.

Sign Up For My Newsletter
Subscribe | Unsubscribe

Site Map | Disclaimer | Privacy Policy | Media Kit | Submissions/Corrections

Website © 2000-2014 mattsmusicpage.com. All rights reserved.

Legal & DMCA: Matt's Music Page has been providing lyrics and tabs in a legal way, paying royalties each year to a few organizations. Then, all lyrics and tabs were removed from the site. Now, there's a new owner to the site, which purchased it August 26, 2014, and he is in negotiation to obtain licensing from BMI at the moment. If you have a specific DMCA request -- please do not hesitate to contact me via the contact button on top. I will do my very best to keep this site fully legal.

Get our toolbar!