Your One-Stop Source For
Music Lyrics
Bass and Guitar Tabs
and More...
>Music Lyrics Bass and Guitar Tabs

 

The Red Hot Chili Peppers Bass Tabs Are Below

Learn To Read Tab
Chords Handbook
Corrections & Additions
Get Official Tab
RHCP tabs @ 911Tabs

She Looks to Me - The Red Hot Chili Peppers

-----------------------------------------------------------------------------

Tabbed By : Kevin A. (Felas_kevin)

e-mail: vekiskev@yahoo.com

 

Tuning: Standard

 

Intro:

 

G|-----------------------|

D|----------6------------|

A|-9--7--7-----9--7--7~--|

E|-----------------------|

 

(0:12)

G|---------------------------------------------------|

D|---------------------------------------------------|

A|-------3-33-x-------------------3-33-x-------532---|

E|-5-55-x------3-33-x1-1-3--5-55-x------3-33-x1------|

 

First Verse: (0:23)

 

G|---------------------------------------------------|

D|---------------------------------------------------|

A|-------3-33-x-------------------3-33-x---------023-|

E|-5-55-x------3-33-x1-1-3--5-55-x------3-33-x1-3----|

 

G|---------------------------------------------------|

D|---------------------------------------------------|

A|-------3-33-x-----------3-------33-35--------------|

E|-5-55-x------3-33-x1-1h3--5-555-------333-3333-----|

 

First Chorus: (0:44)

 

G|------------------------------------------------|

D|---------------4h6-4h6-4------------------------|

A|-999x-777x-777x---------7--999x-777x-777x--7----|

E|-----------------------------------------99-----|

 

G|-----------------------------------------|

D|---------------4h6-4---464-444x----------|

A|-999x-777x-777x-----747--------777-57~---|

E|-----------------------------------------|

 

Second Verse: (1:06)

 

G|---------------------------------------------------|

D|---------------------------------------------------|

A|-------3-33-x---------3-------3-33-x-------5/7-532-|

E|-5-55-x------3-33-x1-1--5-55-x------3-33-x1--------|

 

G|---------------------------------------------------|

D|---------------------------------------------------|

A|-------3-33-x-----------3-------33-35--------------|

E|-5-55-x------3-33-x1-1h3--5-55x-------333-3333-----|

 

Second Chorus: (1:28)

 

G|------------------------------------------------|

D|---------------4h6-4h6-4------------------------|

A|-999x-777x-777x---------7--999x-777x-777x--7----|

E|-----------------------------------------99-----|

 

G|--------------------------------------------|

D|---------------4h6-4------------------------|

A|-999x-777x-777x-----747-999x-77-7777-7777---|

E|--------------------------------------------|

 

Bridge: (1:50)

 

G|---------------------------------------------|

D|------------------5--3-3-3-3-2-3-3-320-------|

A|--------7--3-3-3-3--------------------32-----|

E|-5-5-5-5-------------------------------------|

 

G|------------------------------------2------|

D|------------------5--3-3-3-3-2-3-3-3-32----|

A|--------7--3-3-3-3---------------------32--|

E|-5-5-5-5-----------------------------------|

 

Guitar Solo: (2:12)

 

G|---------------------------------------------------|

D|---------------------------------------------------|

A|-------3-33-x---------3-------3-33-x--------32-32--|

E|-5-55-x------3-33-x1-1--5-55-x------3-33-x1--------|

 

G|---------------------------------------------------|

D|--------------------2------------------------------|

A|-------3-33-x--------5-3-------3-33-x--------------|

E|-5-55-x------3-33-x1-----5-55-x------3-33-x1-1-3---|

 

Third Verse: (2:34)

 

G|----------------------------------------------------|

D|----------------------------------------------------|

A|-------3-33-x-------------------3-33-x-------3/5-32-|

E|-5-55-x------3-33-x1-1-3--5-55-x------3-33-x1-------|

 

G|-------------------------------------------------|

D|-------------------------------------------------|

A|-------3-33-x-----------------33-35--------------|

E|-5-55-x------3-33-x1-1-3-5-55x------333-3333-----|

 

Final Chorus: (2:55)

 

G|------------------------------------------------|

D|---------------4h6-4h6-4------------------------|

A|-999x-777x-777x---------7--999x-777x-777x--7----|

E|-----------------------------------------99-----|

 

G|------------------------------------------------|

D|---------------4h6-4---464-444x-----------------|

A|-999x-777x-777x-----747--------777-57777-7-7777-|

E|------------------------------------------------|

 

G|------------------------------------------------------|

D|--------------------6h8-6h8-6-686-666x----------------|

A|-11-11-11x-999x-999x---------9--------999x-999-----9--|

E|----------------------------------------------11-11---|

 

G|----------------------------------------------------|

D|--------------------6h8-6-6-686-666x----------------|

A|-11-11-11x-999x-999x-----9-9--------999x-999-----9--|

E|--------------------------------------------11-11---|

 

G|-----------------------------------------------------|

D|--------------------6h8-6-6-686-6646x----------------|

A|-11-11-11x-999x-999x-----9-9---------999x-999-----9--|

E|--------------------------------------------11-11----|

 

G|---------------------------------------6------|

D|--------------------6-8-6-6-666x-444-44-4~~---|

A|-11-11-11x-999x-999x-----9-9------------------|

E|----------------------------------------------|

 

| / slide up

| \ slide down

| h hammer-on

| p pull-off

| ~ let ring

| + harmonic

| x Mute note

=============================================================================

Return to my Red Hot Chili Peppers Bass Tabs page

The Tablature is Copyright its respective owners.

Sign Up For My Newsletter
Subscribe | Unsubscribe

Site Map | Disclaimer | Privacy Policy | Media Kit | Submissions/Corrections

Website © 2000-2014 mattsmusicpage.com. All rights reserved.

Legal & DMCA: Matt's Music Page has been providing lyrics and tabs in a legal way, paying royalties each year to a few organizations. Then, all lyrics and tabs were removed from the site. Now, there's a new owner to the site, which purchased it August 26, 2014, and he is in negotiation to obtain licensing from BMI at the moment. If you have a specific DMCA request -- please do not hesitate to contact me via the contact button on top. I will do my very best to keep this site fully legal.

Get our toolbar!

 

BRAND NEW HOHNER MARINE BAND 10 HOLES HARMONICA HARP KEY OF D FLAT 1896/20
$32.51
BRAND NEW HOHNER MARINE BAND 10 HOLES HARMONICA HARP KEY OF D FLAT 1896/20 picture


M.HOHNERS WORLD RENOWNED HARMONICAS,GERMANY,TIMBER DISPLAY CASE,VGC.
$7.58
M.HOHNERS WORLD RENOWNED HARMONICAS,GERMANY,TIMBER DISPLAY CASE,VGC. picture


BRAND NEW HOHNER BIG RIVER 20 REED HARMONICA DIATONIC HARP KEY OF B FLAT 590/20
$26.37
BRAND NEW HOHNER BIG RIVER 20 REED HARMONICA DIATONIC HARP KEY OF B FLAT 590/20 picture


BRAND NEW HOHNER BIG RIVER 20 REED HARMONICA DIATONIC HARP KEY OF E FLAT 590/20
$26.37
BRAND NEW HOHNER BIG RIVER 20 REED HARMONICA DIATONIC HARP KEY OF E FLAT 590/20 picture


BRAND NEW HOHNER BIG RIVER 20 REED HARMONICA DIATONIC HARP KEY OF E 590/20
$26.37
BRAND NEW HOHNER BIG RIVER 20 REED HARMONICA DIATONIC HARP KEY OF E 590/20 picture